  0
SECTION
  2
HEADER
  9
$ACADVER
  1
AC1014
  9
$ACADMAINTVER
 70
     9
  9
$DWGCODEPAGE
  3
ANSI_932
  9
$INSBASE
 10
704.0488189009453
 20
400.4819171865281
 30
0.0
  9
$EXTMIN
 10
519.2383908188697
 20
395.567032395812
 30
-0.00000001
  9
$EXTMAX
 10
731.9307714106848
 20
693.7606147898433
 30
0.00000001
  9
$LIMMIN
 10
36.0
 20
25.5
  9
$LIMMAX
 10
1224.0
 20
865.4999999999999
  9
$ORTHOMODE
 70
     1
  9
$REGENMODE
 70
     1
  9
$FILLMODE
 70
     1
  9
$QTEXTMODE
 70
     0
  9
$MIRRTEXT
 70
     0
  9
$DRAGMODE
 70
     2
  9
$LTSCALE
 40
2.0
  9
$OSMODE
 70
   513
  9
$ATTMODE
 70
     1
  9
$TEXTSIZE
 40
0.2
  9
$TRACEWID
 40
0.05
  9
$TEXTSTYLE
  7
STANDARD
  9
$CLAYER
  8
0
  9
$CELTYPE
  6
CONTINUOUS
  9
$CECOLOR
 62
   256
  9
$CELTSCALE
 40
1.0
  9
$DELOBJ
 70
     1
  9
$DISPSILH
 70
     0
  9
$DIMSCALE
 40
3.0
  9
$DIMASZ
 40
2.0
  9
$DIMEXO
 40
2.0
  9
$DIMDLI
 40
7.0
  9
$DIMRND
 40
0.0
  9
$DIMDLE
 40
0.0
  9
$DIMEXE
 40
0.5
  9
$DIMTP
 40
0.0
  9
$DIMTM
 40
0.0
  9
$DIMTXT
 40
2.0
  9
$DIMCEN
 40
0.09
  9
$DIMTSZ
 40
0.0
  9
$DIMTOL
 70
     0
  9
$DIMLIM
 70
     0
  9
$DIMTIH
 70
     0
  9
$DIMTOH
 70
     0
  9
$DIMSE1
 70
     0
  9
$DIMSE2
 70
     0
  9
$DIMTAD
 70
     1
  9
$DIMZIN
 70
     8
  9
$DIMBLK
  1
OPEN
  9
$DIMASO
 70
     1
  9
$DIMSHO
 70
     1
  9
$DIMPOST
  1

  9
$DIMAPOST
  1

  9
$DIMALT
 70
     0
  9
$DIMALTD
 70
     2
  9
$DIMALTF
 40
0.03937
  9
$DIMLFAC
 40
1.0
  9
$DIMTOFL
 70
     1
  9
$DIMTVP
 40
0.0
  9
$DIMTIX
 70
     0
  9
$DIMSOXD
 70
     0
  9
$DIMSAH
 70
     0
  9
$DIMBLK1
  1

  9
$DIMBLK2
  1

  9
$DIMSTYLE
  2
G1
  9
$DIMCLRD
 70
     0
  9
$DIMCLRE
 70
     0
  9
$DIMCLRT
 70
     7
  9
$DIMTFAC
 40
1.0
  9
$DIMGAP
 40
0.8
  9
$DIMJUST
 70
     0
  9
$DIMSD1
 70
     0
  9
$DIMSD2
 70
     0
  9
$DIMTOLJ
 70
     1
  9
$DIMTZIN
 70
     0
  9
$DIMALTZ
 70
     0
  9
$DIMALTTZ
 70
     0
  9
$DIMFIT
 70
     3
  9
$DIMUPT
 70
     0
  9
$DIMUNIT
 70
     2
  9
$DIMDEC
 70
     2
  9
$DIMTDEC
 70
     2
  9
$DIMALTU
 70
     2
  9
$DIMALTTD
 70
     2
  9
$DIMTXSTY
  7
STANDARD
  9
$DIMAUNIT
 70
     0
  9
$LUNITS
 70
     2
  9
$LUPREC
 70
     4
  9
$SKETCHINC
 40
0.1
  9
$FILLETRAD
 40
5.0
  9
$AUNITS
 70
     0
  9
$AUPREC
 70
     0
  9
$MENU
  1
.
  9
$ELEVATION
 40
0.0
  9
$PELEVATION
 40
0.0
  9
$THICKNESS
 40
0.0
  9
$LIMCHECK
 70
     0
  9
$BLIPMODE
 70
     0
  9
$CHAMFERA
 40
0.0
  9
$CHAMFERB
 40
0.0
  9
$CHAMFERC
 40
0.0
  9
$CHAMFERD
 40
0.0
  9
$SKPOLY
 70
     0
  9
$TDCREATE
 40
2452110.000000000
  9
$TDUPDATE
 40
2453944.014605567
  9
$TDINDWG
 40
0.6229846991
  9
$TDUSRTIMER
 40
0.6229846991
  9
$USRTIMER
 70
     1
  9
$ANGBASE
 50
0.0
  9
$ANGDIR
 70
     0
  9
$PDMODE
 70
     3
  9
$PDSIZE
 40
0.0
  9
$PLINEWID
 40
0.0
  9
$COORDS
 70
     1
  9
$SPLFRAME
 70
     0
  9
$SPLINETYPE
 70
     6
  9
$SPLINESEGS
 70
     8
  9
$ATTDIA
 70
     0
  9
$ATTREQ
 70
     1
  9
$HANDLING
 70
 10241
  9
$HANDSEED
  5
1E0
  9
$SURFTAB1
 70
     6
  9
$SURFTAB2
 70
     6
  9
$SURFTYPE
 70
     6
  9
$SURFU
 70
     6
  9
$SURFV
 70
     6
  9
$UCSNAME
  2

  9
$UCSORG
 10
0.0
 20
0.0
 30
0.0
  9
$UCSXDIR
 10
1.0
 20
0.0
 30
0.0
  9
$UCSYDIR
 10
0.0
 20
1.0
 30
0.0
  9
$PUCSNAME
  2

  9
$PUCSORG
 10
0.0
 20
0.0
 30
0.0
  9
$PUCSXDIR
 10
1.0
 20
0.0
 30
0.0
  9
$PUCSYDIR
 10
0.0
 20
1.0
 30
0.0
  9
$USERI1
 70
     0
  9
$USERI2
 70
     0
  9
$USERI3
 70
     0
  9
$USERI4
 70
     0
  9
$USERI5
 70
     0
  9
$USERR1
 40
0.0
  9
$USERR2
 40
0.0
  9
$USERR3
 40
0.0
  9
$USERR4
 40
0.0
  9
$USERR5
 40
0.0
  9
$WORLDVIEW
 70
     1
  9
$SHADEDGE
 70
     3
  9
$SHADEDIF
 70
    70
  9
$TILEMODE
 70
     1
  9
$MAXACTVP
 70
    48
  9
$PINSBASE
 10
0.0
 20
0.0
 30
0.0
  9
$PLIMCHECK
 70
     0
  9
$PEXTMIN
 10
1.000000000000000E+20
 20
1.000000000000000E+20
 30
1.000000000000000E+20
  9
$PEXTMAX
 10
-1.000000000000000E+20
 20
-1.000000000000000E+20
 30
-1.000000000000000E+20
  9
$PLIMMIN
 10
0.0
 20
0.0
  9
$PLIMMAX
 10
12.0
 20
9.0
  9
$UNITMODE
 70
     0
  9
$VISRETAIN
 70
     1
  9
$PLINEGEN
 70
     0
  9
$PSLTSCALE
 70
     1
  9
$TREEDEPTH
 70
  3020
  9
$PICKSTYLE
 70
     1
  9
$CMLSTYLE
  2
STANDARD
  9
$CMLJUST
 70
     0
  9
$CMLSCALE
 40
1.0
  9
$PROXYGRAPHICS
 70
     1
  9
$MEASUREMENT
 70
     0
  0
ENDSEC
  0
SECTION
  2
CLASSES
  0
CLASS
  1
ACDBDICTIONARYWDFLT
  2
AcDbDictionaryWithDefault
  3
AutoCAD 2000
 90
        0
280
     0
281
     0
  0
CLASS
  1
ACDBPLACEHOLDER
  2
AcDbPlaceHolder
  3
AutoCAD 2000
 90
        0
280
     0
281
     0
  0
CLASS
  1
LAYOUT
  2
AcDbLayout
  3
AutoCAD 2000
 90
        0
280
     0
281
     0
  0
CLASS
  1
DICTIONARYVAR
  2
AcDbDictionaryVar
  3
AutoCAD 2000
 90
        0
280
     0
281
     0
  0
CLASS
  1
TABLESTYLE
  2
AcDbTableStyle
  3
ObjectDBX Classes
 90
     2047
280
     0
281
     0
  0
CLASS
  1
SORTENTSTABLE
  2
AcDbSortentsTable
  3
AutoCAD 2000
 90
        0
280
     0
281
     0
  0
CLASS
  1
ACAD_PROXY_OBJECT_WRAPPER
  2
AcDbProxyObjectWrapper
  3
AutoCAD 2000
 90
        0
280
     0
281
     0
  0
CLASS
  1
LONG_TRANSACTION
  2
AcDbLongTransaction
  3
AutoCAD 2000
 90
        0
280
     0
281
     0
  0
CLASS
  1
LWPOLYLINE
  2
AcDbPolyline
  3
AutoCAD 2000
 90
        0
280
     0
281
     1
  0
CLASS
  1
HATCH
  2
AcDbHatch
  3
AutoCAD 2000
 90
        0
280
     0
281
     1
  0
CLASS
  1
XRECORD
  2
AcDbXrecord
  3
AutoCAD 2000
 90
        0
280
     0
281
     0
  0
CLASS
  1
LONG_TRANSACTION
  2
AcDbLongTransaction
  3
AutoCAD 2000
 90
        0
280
     0
281
     0
  0
CLASS
  1
LWPOLYLINE
  2
AcDbPolyline
  3
AutoCAD 2000
 90
        0
280
     0
281
     1
  0
CLASS
  1
HATCH
  2
AcDbHatch
  3
AutoCAD 2000
 90
        0
280
     0
281
     1
  0
CLASS
  1
XRECORD
  2
AcDbXrecord
  3
AutoCAD 2000
 90
        0
280
     0
281
     0
  0
ENDSEC
  0
SECTION
  2
TABLES
  0
TABLE
  2
VPORT
  5
20
330
0
100
AcDbSymbolTable
 70
     2
  0
VPORT
  5
1BC
330
20
100
AcDbSymbolTableRecord
100
AcDbViewportTableRecord
  2
*ACTIVE
 70
     0
 10
0.0
 20
0.0
 11
1.0
 21
1.0
 12
628.1376022439403
 22
536.7277242299492
 13
0.0
 23
0.0
 14
1.0
 24
1.0
 15
0.0
 25
0.0
 16
0.0
 26
0.0
 36
1.0
 17
0.0
 27
0.0
 37
0.0
 40
278.0517898781006
 41
1.933867735470941
 42
50.0
 43
0.0
 44
0.0
 50
0.0
 51
0.0
 71
     0
 72
   100
 73
     1
 74
     1
 75
     0
 76
     0
 77
     0
 78
     0
  0
ENDTAB
  0
TABLE
  2
LTYPE
  5
1B
330
0
100
AcDbSymbolTable
 70
     1
  0
LTYPE
  5
1C
330
1B
100
AcDbSymbolTableRecord
100
AcDbLinetypeTableRecord
  2
BYBLOCK
 70
     0
  3

 72
    65
 73
     0
 40
0.0
  0
LTYPE
  5
1D
330
1B
100
AcDbSymbolTableRecord
100
AcDbLinetypeTableRecord
  2
BYLAYER
 70
     0
  3

 72
    65
 73
     0
 40
0.0
  0
LTYPE
  5
C
330
1B
100
AcDbSymbolTableRecord
100
AcDbLinetypeTableRecord
  2
CONTINUOUS
 70
     0
  3
Solid line
 72
    65
 73
     0
 40
0.0
  0
ENDTAB
  0
TABLE
  2
LAYER
  5
17
330
0
100
AcDbSymbolTable
 70
     2
  0
LAYER
  5
7
330
17
100
AcDbSymbolTableRecord
100
AcDbLayerTableRecord
  2
0
 70
     0
 62
     7
  6
CONTINUOUS
  0
LAYER
  5
35
330
17
100
AcDbSymbolTableRecord
100
AcDbLayerTableRecord
  2
OUTLINE
 70
     0
 62
     7
  6
CONTINUOUS
  0
ENDTAB
  0
TABLE
  2
STYLE
  5
18
330
0
100
AcDbSymbolTable
 70
     1
  0
STYLE
  5
19
330
18
100
AcDbSymbolTableRecord
100
AcDbTextStyleTableRecord
  2
STANDARD
 70
     0
 40
0.0
 41
1.0
 50
0.0
 71
     0
 42
0.2
  3
romans.shx
  4
bigfont.shx
  0
ENDTAB
  0
TABLE
  2
VIEW
  5
1E
330
0
100
AcDbSymbolTable
 70
     0
  0
ENDTAB
  0
TABLE
  2
UCS
  5
1F
330
0
100
AcDbSymbolTable
 70
     0
  0
ENDTAB
  0
TABLE
  2
APPID
  5
22
330
0
100
AcDbSymbolTable
 70
     3
  0
APPID
  5
B
330
22
100
AcDbSymbolTableRecord
100
AcDbRegAppTableRecord
  2
ACAD
 70
     0
  0
APPID
  5
10
330
22
100
AcDbSymbolTableRecord
100
AcDbRegAppTableRecord
  2
ACAD_PSEXT
 70
     0
  0
APPID
  5
1A3
330
22
100
AcDbSymbolTableRecord
100
AcDbRegAppTableRecord
  2
ACAD_EXEMPT_FROM_CAD_STAND
 70
     0
  0
ENDTAB
  0
TABLE
  2
DIMSTYLE
  5
23
330
0
100
AcDbSymbolTable
 70
     1
  0
DIMSTYLE
105
24
330
23
100
AcDbSymbolTableRecord
100
AcDbDimStyleTableRecord
  2
G1
 70
     0
  3

  4

  5
OPEN
  6

  7

 40
3.0
 41
2.0
 42
2.0
 43
7.0
 44
0.5
 45
0.0
 46
0.0
 47
0.0
 48
0.0
140
2.0
141
0.09
142
0.0
143
0.03937
144
1.0
145
0.0
146
1.0
147
0.8
 71
     0
 72
     0
 73
     0
 74
     0
 75
     0
 76
     0
 77
     1
 78
     8
170
     0
171
     2
172
     1
173
     0
174
     0
175
     0
176
     0
177
     0
178
     7
270
     2
271
     2
272
     2
273
     2
274
     2
340
19
275
     0
280
     0
281
     0
282
     0
283
     1
284
     0
285
     0
286
     0
287
     3
288
     0
  0
ENDTAB
  0
TABLE
  2
BLOCK_RECORD
  5
1
330
0
100
AcDbSymbolTable
 70
     1
  0
BLOCK_RECORD
  5
2
102
{ACAD_XDICTIONARY
360
3
102
}
330
1
100
AcDbSymbolTableRecord
100
AcDbBlockTableRecord
  2
*MODEL_SPACE
  0
BLOCK_RECORD
  5
11
102
{ACAD_XDICTIONARY
360
12
102
}
330
1
100
AcDbSymbolTableRecord
100
AcDbBlockTableRecord
  2
*PAPER_SPACE
  0
BLOCK_RECORD
  5
25
330
1
100
AcDbSymbolTableRecord
100
AcDbBlockTableRecord
  2
_OPEN
  0
ENDTAB
  0
ENDSEC
  0
SECTION
  2
BLOCKS
  0
BLOCK
  5
6
330
2
100
AcDbEntity
  8
0
100
AcDbBlockBegin
  2
*MODEL_SPACE
 70
     0
 10
0.0
 20
0.0
 30
0.0
  3
*MODEL_SPACE
  1

  0
ENDBLK
  5
D
330
2
100
AcDbEntity
  8
0
100
AcDbBlockEnd
  0
BLOCK
  5
14
330
11
100
AcDbEntity
 67
     1
  8
0
100
AcDbBlockBegin
  2
*PAPER_SPACE
 70
     0
 10
0.0
 20
0.0
 30
0.0
  3
*PAPER_SPACE
  1

  0
ENDBLK
  5
15
330
11
100
AcDbEntity
 67
     1
  8
0
100
AcDbBlockEnd
  0
BLOCK
  5
26
330
25
100
AcDbEntity
  8
0
100
AcDbBlockBegin
  2
_OPEN
 70
     0
 10
0.0
 20
0.0
 30
0.0
  3
_OPEN
  1

  0
LINE
  5
27
330
25
100
AcDbEntity
  8
0
 62
     0
100
AcDbLine
 10
-0.9659259999999999
 20
0.258819
 30
0.0
 11
0.0
 21
0.0
 31
0.0
  0
LINE
  5
28
330
25
100
AcDbEntity
  8
0
 62
     0
100
AcDbLine
 10
0.0
 20
0.0
 30
0.0
 11
-0.9659259999999999
 21
-0.258819
 31
0.0
  0
LINE
  5
29
330
25
100
AcDbEntity
  8
0
 62
     0
100
AcDbLine
 10
0.0
 20
0.0
 30
0.0
 11
-1.0
 21
0.0
 31
0.0
  0
ENDBLK
  5
2A
330
25
100
AcDbEntity
  8
0
100
AcDbBlockEnd
  0
ENDSEC
  0
SECTION
  2
ENTITIES
  0
LINE
  5
34
330
2
100
AcDbEntity
  8
OUTLINE
  6
CONTINUOUS
 48
25.4
100
AcDbLine
 10
717.9915759173696
 20
460.4819171865281
 30
0.0
 11
719.0568276378695
 21
460.4819171865281
 31
0.0
  0
LINE
  5
36
330
2
100
AcDbEntity
  8
OUTLINE
  6
CONTINUOUS
 48
25.4
100
AcDbLine
 10
718.1753445133697
 20
462.4819171865281
 30
0.0
 11
718.9869860988697
 21
462.4819171865281
 31
0.0
  0
LINE
  5
37
330
2
100
AcDbEntity
  8
OUTLINE
  6
CONTINUOUS
 48
25.4
100
AcDbLine
 10
695.3580701518697
 20
464.8805790875281
 30
0.0
 11
695.3415450118698
 21
451.3211257365281
 31
0.0
  0
ARC
  5
38
330
2
100
AcDbEntity
  8
OUTLINE
  6
CONTINUOUS
 48
25.4
100
AcDbCircle
 10
711.7851018433697
 20
423.989625549028
 30
0.0
 40
40.12354203280994
100
AcDbArc
 50
164.1541692987999
 51
214.9587657983001
  0
ARC
  5
39
330
2
100
AcDbEntity
  8
OUTLINE
  6
CONTINUOUS
 48
25.4
100
AcDbCircle
 10
725.7948853143698
 20
419.1587664900279
 30
0.0
 40
54.92616739230514
100
AcDbArc
 50
123.6515365728001
 51
163.2967615317002
  0
LINE
  5
3A
330
2
100
AcDbEntity
  8
OUTLINE
  6
CONTINUOUS
 48
25.4
100
AcDbLine
 10
669.9038261478697
 20
438.4819171865281
 30
0.0
 11
672.7503716078699
 21
435.0642849100281
 31
0.0
  0
ARC
  5
3B
330
2
100
AcDbEntity
  8
OUTLINE
  6
CONTINUOUS
 48
25.4
100
AcDbCircle
 10
790.5513582538698
 20
319.6933531650279
 30
0.0
 40
174.061470221004
100
AcDbArc
 50
114.6715822435997
 51
123.2511560886996
  0
ARC
  5
3C
330
2
100
AcDbEntity
  8
OUTLINE
  6
CONTINUOUS
 48
25.4
100
AcDbCircle
 10
725.8047951223696
 20
419.147531501528
 30
0.0
 40
55.39056682803774
100
AcDbArc
 50
123.6502217937998
 51
163.3003333462003
  0
ARC
  5
3D
330
2
100
AcDbEntity
  8
OUTLINE
  6
CONTINUOUS
 48
25.4
100
AcDbCircle
 10
791.5423265038697
 20
314.7775376880279
 30
0.0
 40
178.2760056973653
100
AcDbArc
 50
114.1987450658997
 51
122.6512690741997
  0
SPLINE
  5
3E
330
2
100
AcDbEntity
  8
OUTLINE
  6
CONTINUOUS
 48
25.4
100
AcDbSpline
210
0.0
220
0.0
230
1.0
 70
     8
 71
     3
 72
    12
 73
     8
 74
     0
 42
0.0000000001
 43
0.0000000001
 40
0.4992731094572297
 40
0.4992731094572297
 40
0.4992731094572297
 40
0.4992731094572297
 40
0.5
 40
0.5
 40
0.75
 40
0.75
 40
1.0
 40
1.0
 40
1.0
 40
1.0
 10
673.5061448762446
 20
400.729118142881
 30
0.0
 10
673.5061450333217
 20
400.729118142518
 30
0.0
 10
673.5061488081452
 20
400.7291181359044
 30
0.0
 10
673.5086988221172
 20
400.7291136990235
 30
0.0
 10
673.9294679578714
 20
400.7284037505313
 30
0.0
 10
675.6040203457915
 20
400.7253181609883
 30
0.0
 10
676.8679742357652
 20
400.7229390596704
 30
0.0
 10
678.5286676449207
 20
400.7192721010135
 30
0.0
  0
ARC
  5
3F
330
2
100
AcDbEntity
  8
OUTLINE
  6
CONTINUOUS
 48
25.4
100
AcDbCircle
 10
711.7972628678696
 20
423.9748874225281
 30
0.0
 40
40.59092351873256
100
AcDbArc
 50
164.1454797100004
 51
214.9545519413996
  0
LINE
  5
40
330
2
100
AcDbEntity
  8
OUTLINE
  6
CONTINUOUS
 48
25.4
100
AcDbLine
 10
672.7504950103697
 20
435.0642046110278
 30
0.0
 11
672.7503716078699
 21
435.0642849100281
 31
0.0
  0
LINE
  5
41
330
2
100
AcDbEntity
  8
OUTLINE
  6
CONTINUOUS
 48
25.4
100
AcDbLine
 10
672.7504802918697
 20
435.0641544215281
 30
0.0
 11
672.7504950103697
 21
435.0642046110278
 31
0.0
  0
ELLIPSE
  5
42
330
2
100
AcDbEntity
  8
OUTLINE
  6
CONTINUOUS
 48
25.4
100
AcDbEllipse
 10
695.3755092703698
 20
464.863129339028
 30
0.0
 11
-0.2770709852057091
 21
0.4162110872587835
 31
0.0
210
0.0
220
0.0
230
1.0
 40
0.0097055064
 41
0.3255027973785264
 42
1.522398825443898
  0
ARC
  5
43
330
2
100
AcDbEntity
  8
OUTLINE
  6
CONTINUOUS
 48
25.4
100
AcDbCircle
 10
670.5128687573697
 20
426.001843795028
 30
0.0
 40
9.334524883577131
100
AcDbArc
 50
73.3575628527999
 51
76.13027603
  0
ELLIPSE
  5
44
330
2
100
AcDbEntity
  8
OUTLINE
  6
CONTINUOUS
 48
25.4
100
AcDbEllipse
 10
678.9187055083697
 20
400.9819171865281
 30
0.0
 11
-0.4097601430368553
 21
-0.2865250864731071
 31
0.0
210
0.0
220
0.0
230
1.0
 40
0.0485896155
 41
4.720973345854871
 42
5.935915847657391
  0
ELLIPSE
  5
45
330
2
100
AcDbEntity
  8
OUTLINE
  6
CONTINUOUS
 48
25.4
100
AcDbEllipse
 10
678.9187055083697
 20
400.9819171865281
 30
0.0
 11
-0.0000000000000035
 21
-0.5000000000000214
 31
0.0
210
0.0
220
0.0
230
1.0
 40
0.9167404965999999
 41
5.265445065281933
 42
6.283185307179584
  0
LINE
  5
46
330
2
100
AcDbEntity
  8
OUTLINE
  6
CONTINUOUS
 48
25.4
100
AcDbLine
 10
695.2976561333697
 20
400.4819171865281
 30
0.0
 11
678.9187055083697
 21
400.4819171865281
 31
0.0
  0
LINE
  5
47
330
2
100
AcDbEntity
  8
OUTLINE
  6
CONTINUOUS
 48
25.4
100
AcDbLine
 10
678.9012663898696
 20
400.9993669350279
 30
0.0
 11
695.2802170148697
 21
400.9993669350279
 31
0.0
  0
LINE
  5
48
330
2
100
AcDbEntity
  8
OUTLINE
  6
CONTINUOUS
 48
25.4
100
AcDbLine
 10
695.2802170148697
 20
400.9993669350279
 30
0.0
 11
721.1340040643698
 21
400.9993669350279
 31
0.0
  0
ELLIPSE
  5
49
330
2
100
AcDbEntity
  8
OUTLINE
  6
CONTINUOUS
 48
25.4
100
AcDbEllipse
 10
695.2976561333697
 20
400.9819171865281
 30
0.0
 11
-0.0000000000000001
 21
-0.5
 31
0.0
210
0.0
220
0.0
230
1.0
 40
0.0348994967
 41
4.67748239534491
 42
6.283185307179584
  0
ELLIPSE
  5
4A
330
2
100
AcDbEntity
  8
OUTLINE
  6
CONTINUOUS
 48
25.4
100
AcDbEllipse
 10
678.9187055083697
 20
400.9819171865281
 30
0.0
 11
0.0000000000000139
 21
-0.5000000000000186
 31
0.0
210
0.0
220
0.0
230
1.0
 40
0.0348994967
 41
4.677482395344624
 42
6.28318530717879
  0
ARC
  5
4B
330
2
100
AcDbEntity
  8
OUTLINE
  6
CONTINUOUS
 48
25.4
100
AcDbCircle
 10
786.7709459348697
 20
273.4734267850281
 30
0.0
 40
216.0472116228666
100
AcDbArc
 50
109.1880583687999
 51
115.969267719
  0
LINE
  5
4C
330
2
100
AcDbEntity
  8
OUTLINE
  6
CONTINUOUS
 48
25.4
100
AcDbLine
 10
695.2898234403696
 20
408.8817738040281
 30
0.0
 11
695.2802170148697
 21
400.9993669350279
 31
0.0
  0
ARC
  5
4D
330
2
100
AcDbEntity
  8
OUTLINE
  6
CONTINUOUS
 48
25.4
100
AcDbCircle
 10
690.1346346888698
 20
423.4993669350281
 30
0.0
 40
15.49999999999999
100
AcDbArc
 50
122.1974831440999
 51
289.4262250422998
  0
ARC
  5
4E
330
2
100
AcDbEntity
  8
OUTLINE
  6
CONTINUOUS
 48
25.4
100
AcDbCircle
 10
690.1520738073696
 20
423.4819171865281
 30
0.0
 40
15.0
100
AcDbArc
 50
289.4262250422998
 51
58.62399409959995
  0
ARC
  5
4F
330
2
100
AcDbEntity
  8
OUTLINE
  6
CONTINUOUS
 48
25.4
100
AcDbCircle
 10
690.1520738073696
 20
423.4819171865281
 30
0.0
 40
15.0
100
AcDbArc
 50
128.5444658703999
 51
289.4262250422998
  0
ARC
  5
50
330
2
100
AcDbEntity
  8
OUTLINE
  6
CONTINUOUS
 48
25.4
100
AcDbCircle
 10
690.4465669683697
 20
423.4989867775278
 30
0.0
 40
15.3987028145142
100
AcDbArc
 50
288.3320603918999
 51
60.06173541459999
  0
ELLIPSE
  5
51
330
2
100
AcDbEntity
  8
OUTLINE
  6
CONTINUOUS
 48
25.4
100
AcDbEllipse
 10
695.3072625588697
 20
408.8643240560278
 30
0.0
 11
0.16629641133163
 21
-0.4715352622850448
 31
0.0
210
0.0
220
0.0
230
1.0
 40
0.0213064338
 41
3.141592653589792
 42
4.667861329681058
  0
LINE
  5
52
330
2
100
AcDbEntity
  8
OUTLINE
  6
CONTINUOUS
 48
25.4
100
AcDbLine
 10
681.0158558958697
 20
457.6433381130279
 30
0.0
 11
680.8370826448697
 21
457.4286599870279
 31
0.0
  0
ARC
  5
53
330
2
100
AcDbEntity
  8
OUTLINE
  6
CONTINUOUS
 48
25.4
100
AcDbCircle
 10
158.2819763558696
 20
892.482529602028
 30
0.0
 40
679.9527940458175
100
AcDbArc
 50
320.1060755190003
 51
320.2212420455998
  0
LINE
  5
54
330
2
100
AcDbEntity
  8
OUTLINE
  6
CONTINUOUS
 48
25.4
100
AcDbLine
 10
679.9642659783698
 20
456.3824209800278
 30
0.0
 11
679.7880223078696
 21
456.1716546185278
 31
0.0
  0
ARC
  5
55
330
2
100
AcDbEntity
  8
OUTLINE
  6
CONTINUOUS
 48
25.4
100
AcDbCircle
 10
-40.74635722363024
 20
1058.516781960028
 30
0.0
 40
939.1430088485368
100
AcDbArc
 50
320.2014557972996
 51
320.2052747105996
  0
ARC
  5
56
330
2
100
AcDbEntity
  8
OUTLINE
  6
CONTINUOUS
 48
25.4
100
AcDbCircle
 10
-40.74635722363024
 20
1058.516781960028
 30
0.0
 40
939.1430088485368
100
AcDbArc
 50
320.1221500961995
 51
320.1260816628998
  0
LINE
  5
57
330
2
100
AcDbEntity
  8
OUTLINE
  6
CONTINUOUS
 48
25.4
100
AcDbLine
 10
678.3425689273697
 20
454.3077984410281
 30
0.0
 11
678.3380302458697
 21
454.301929089028
 31
0.0
  0
LINE
  5
58
330
2
100
AcDbEntity
  8
OUTLINE
  6
CONTINUOUS
 48
25.4
100
AcDbLine
 10
678.3539764853697
 20
454.3223948265278
 30
0.0
 11
678.3425689273697
 21
454.3077984410281
 31
0.0
  0
LINE
  5
59
330
2
100
AcDbEntity
  8
OUTLINE
  6
CONTINUOUS
 48
25.4
100
AcDbLine
 10
678.3712278243697
 20
454.3443264510281
 30
0.0
 11
678.3539764853697
 21
454.3223948265278
 31
0.0
  0
LINE
  5
5A
330
2
100
AcDbEntity
  8
OUTLINE
  6
CONTINUOUS
 48
25.4
100
AcDbLine
 10
678.3932991183697
 20
454.3722002495281
 30
0.0
 11
678.3712278243697
 21
454.3443264510281
 31
0.0
  0
LINE
  5
5B
330
2
100
AcDbEntity
  8
OUTLINE
  6
CONTINUOUS
 48
25.4
100
AcDbLine
 10
678.4191660523697
 20
454.4046236460281
 30
0.0
 11
678.3932991183697
 21
454.3722002495281
 31
0.0
  0
LINE
  5
5C
330
2
100
AcDbEntity
  8
OUTLINE
  6
CONTINUOUS
 48
25.4
100
AcDbLine
 10
678.4600500833697
 20
454.455247458028
 30
0.0
 11
678.4191660523697
 21
454.4046236460281
 31
0.0
  0
LINE
  5
5D
330
2
100
AcDbEntity
  8
OUTLINE
  6
CONTINUOUS
 48
25.4
100
AcDbLine
 10
678.7788891753697
 20
454.8252523405277
 30
0.0
 11
678.7786085328697
 21
454.8307030285279
 31
0.0
  0
LINE
  5
5E
330
2
100
AcDbEntity
  8
OUTLINE
  6
CONTINUOUS
 48
25.4
100
AcDbLine
 10
678.7750784693696
 20
454.8141428325278
 30
0.0
 11
678.7788891753697
 21
454.8252523405277
 31
0.0
  0
LINE
  5
5F
330
2
100
AcDbEntity
  8
OUTLINE
  6
CONTINUOUS
 48
25.4
100
AcDbLine
 10
678.7676580913697
 20
454.798000554028
 30
0.0
 11
678.7750784693696
 21
454.8141428325278
 31
0.0
  0
LINE
  5
60
330
2
100
AcDbEntity
  8
OUTLINE
  6
CONTINUOUS
 48
25.4
100
AcDbLine
 10
678.7571105633698
 20
454.777450709028
 30
0.0
 11
678.7676580913697
 21
454.798000554028
 31
0.0
  0
LINE
  5
61
330
2
100
AcDbEntity
  8
OUTLINE
  6
CONTINUOUS
 48
25.4
100
AcDbLine
 10
678.7439187063697
 20
454.7531182020281
 30
0.0
 11
678.7571105633698
 21
454.777450709028
 31
0.0
  0
LINE
  5
62
330
2
100
AcDbEntity
  8
OUTLINE
  6
CONTINUOUS
 48
25.4
100
AcDbLine
 10
678.7285651728697
 20
454.7256281070281
 30
0.0
 11
678.7439187063697
 21
454.7531182020281
 31
0.0
  0
LINE
  5
63
330
2
100
AcDbEntity
  8
OUTLINE
  6
CONTINUOUS
 48
25.4
100
AcDbLine
 10
678.7025360493697
 20
454.6798413175278
 30
0.0
 11
678.7285651728697
 21
454.7256281070281
 31
0.0
  0
LINE
  5
64
330
2
100
AcDbEntity
  8
OUTLINE
  6
CONTINUOUS
 48
25.4
100
AcDbLine
 10
678.6743506383698
 20
454.6304734290278
 30
0.0
 11
678.7025360493697
 21
454.6798413175278
 31
0.0
  0
LINE
  5
65
330
2
100
AcDbEntity
  8
OUTLINE
  6
CONTINUOUS
 48
25.4
100
AcDbLine
 10
678.5936856468697
 20
454.5411915280281
 30
0.0
 11
678.6743506383698
 21
454.6304734290278
 31
0.0
  0
LINE
  5
66
330
2
100
AcDbEntity
  8
OUTLINE
  6
CONTINUOUS
 48
25.4
100
AcDbLine
 10
678.6130567288697
 20
454.575593086028
 30
0.0
 11
678.5936856468697
 21
454.5411915280281
 31
0.0
  0
LINE
  5
67
330
2
100
AcDbEntity
  8
OUTLINE
  6
CONTINUOUS
 48
25.4
100
AcDbLine
 10
678.6300513918697
 20
454.6064165910278
 30
0.0
 11
678.6130567288697
 21
454.575593086028
 31
0.0
  0
LINE
  5
68
330
2
100
AcDbEntity
  8
OUTLINE
  6
CONTINUOUS
 48
25.4
100
AcDbLine
 10
678.6396944033697
 20
454.6244991165279
 30
0.0
 11
678.6300513918697
 21
454.6064165910278
 31
0.0
  0
LINE
  5
69
330
2
100
AcDbEntity
  8
OUTLINE
  6
CONTINUOUS
 48
25.4
100
AcDbLine
 10
678.6477311658695
 20
454.6402736560279
 30
0.0
 11
678.6396944033697
 21
454.6244991165279
 31
0.0
  0
LINE
  5
6A
330
2
100
AcDbEntity
  8
OUTLINE
  6
CONTINUOUS
 48
25.4
100
AcDbLine
 10
678.6539414753697
 20
454.653453291528
 30
0.0
 11
678.6477311658695
 21
454.6402736560279
 31
0.0
  0
LINE
  5
6B
330
2
100
AcDbEntity
  8
OUTLINE
  6
CONTINUOUS
 48
25.4
100
AcDbLine
 10
678.6581052178697
 20
454.6637510160279
 30
0.0
 11
678.6539414753697
 21
454.653453291528
 31
0.0
  0
LINE
  5
6C
330
2
100
AcDbEntity
  8
OUTLINE
  6
CONTINUOUS
 48
25.4
100
AcDbLine
 10
678.6600025123695
 20
454.6708795895279
 30
0.0
 11
678.6581052178697
 21
454.6637510160279
 31
0.0
  0
LINE
  5
6D
330
2
100
AcDbEntity
  8
OUTLINE
  6
CONTINUOUS
 48
25.4
100
AcDbLine
 10
678.6594138738696
 20
454.6745513750281
 30
0.0
 11
678.6600025123695
 21
454.6708795895279
 31
0.0
  0
LINE
  5
6E
330
2
100
AcDbEntity
  8
OUTLINE
  6
CONTINUOUS
 48
25.4
100
AcDbLine
 10
678.6525598138697
 20
454.6725916890278
 30
0.0
 11
678.6594138738696
 21
454.6745513750281
 31
0.0
  0
LINE
  5
6F
330
2
100
AcDbEntity
  8
OUTLINE
  6
CONTINUOUS
 48
25.4
100
AcDbLine
 10
678.6391002228697
 20
454.6614138695281
 30
0.0
 11
678.6525598138697
 21
454.6725916890278
 31
0.0
  0
LINE
  5
70
330
2
100
AcDbEntity
  8
OUTLINE
  6
CONTINUOUS
 48
25.4
100
AcDbLine
 10
678.6200824153696
 20
454.6423874905278
 30
0.0
 11
678.6391002228697
 21
454.6614138695281
 31
0.0
  0
LINE
  5
71
330
2
100
AcDbEntity
  8
OUTLINE
  6
CONTINUOUS
 48
25.4
100
AcDbLine
 10
678.5965552538698
 20
454.616880581528
 30
0.0
 11
678.6200824153696
 21
454.6423874905278
 31
0.0
  0
LINE
  5
72
330
2
100
AcDbEntity
  8
OUTLINE
  6
CONTINUOUS
 48
25.4
100
AcDbLine
 10
678.5695673463698
 20
454.5862614245279
 30
0.0
 11
678.5965552538698
 21
454.616880581528
 31
0.0
  0
LINE
  5
73
330
2
100
AcDbEntity
  8
OUTLINE
  6
CONTINUOUS
 48
25.4
100
AcDbLine
 10
678.5197391733698
 20
454.5275911180281
 30
0.0
 11
678.5695673463698
 21
454.5862614245279
 31
0.0
  0
LINE
  5
74
330
2
100
AcDbEntity
  8
OUTLINE
  6
CONTINUOUS
 48
25.4
100
AcDbLine
 10
678.4680328558697
 20
454.4648879755278
 30
0.0
 11
678.5197391733698
 21
454.5275911180281
 31
0.0
  0
LINE
  5
75
330
2
100
AcDbEntity
  8
OUTLINE
  6
CONTINUOUS
 48
25.4
100
AcDbLine
 10
678.4192478213697
 20
454.4045418775281
 30
0.0
 11
678.4680328558697
 21
454.4648879755278
 31
0.0
  0
LINE
  5
76
330
2
100
AcDbEntity
  8
OUTLINE
  6
CONTINUOUS
 48
25.4
100
AcDbLine
 10
678.3933645388698
 20
454.372134829028
 30
0.0
 11
678.4192478213697
 21
454.4045418775281
 31
0.0
  0
LINE
  5
77
330
2
100
AcDbEntity
  8
OUTLINE
  6
CONTINUOUS
 48
25.4
100
AcDbLine
 10
678.3712768933697
 20
454.3442773820281
 30
0.0
 11
678.3933645388698
 21
454.372134829028
 31
0.0
  0
LINE
  5
78
330
2
100
AcDbEntity
  8
OUTLINE
  6
CONTINUOUS
 48
25.4
100
AcDbLine
 10
678.3540091998697
 20
454.3223621120279
 30
0.0
 11
678.3712768933697
 21
454.3442773820281
 31
0.0
  0
LINE
  5
79
330
2
100
AcDbEntity
  8
OUTLINE
  6
CONTINUOUS
 48
25.4
100
AcDbLine
 10
678.3425852853697
 20
454.3077820830281
 30
0.0
 11
678.3540091998697
 21
454.3223621120279
 31
0.0
  0
LINE
  5
7A
330
2
100
AcDbEntity
  8
OUTLINE
  6
CONTINUOUS
 48
25.4
100
AcDbLine
 10
678.3380302458697
 20
454.301929089028
 30
0.0
 11
678.3425852853697
 21
454.3077820830281
 31
0.0
  0
LINE
  5
7B
330
2
100
AcDbEntity
  8
OUTLINE
  6
CONTINUOUS
 48
25.4
100
AcDbLine
 10
678.6594138738696
 20
454.6745513750281
 30
0.0
 11
678.6849414988697
 21
454.6490237500282
 31
0.0
  0
LINE
  5
7C
330
2
100
AcDbEntity
  8
OUTLINE
  6
CONTINUOUS
 48
25.4
100
AcDbLine
 10
678.6600025123695
 20
454.6708795895279
 30
0.0
 11
678.6838209823697
 21
454.6470611195279
 31
0.0
  0
LINE
  5
7D
330
2
100
AcDbEntity
  8
OUTLINE
  6
CONTINUOUS
 48
25.4
100
AcDbLine
 10
678.6581052178697
 20
454.6637510160279
 30
0.0
 11
678.6805406858698
 21
454.6413155480278
 31
0.0
  0
LINE
  5
7E
330
2
100
AcDbEntity
  8
OUTLINE
  6
CONTINUOUS
 48
25.4
100
AcDbLine
 10
678.6539414753697
 20
454.653453291528
 30
0.0
 11
678.6752849148696
 21
454.6321098520281
 31
0.0
  0
LINE
  5
7F
330
2
100
AcDbEntity
  8
OUTLINE
  6
CONTINUOUS
 48
25.4
100
AcDbLine
 10
678.6477311658695
 20
454.6402736560279
 30
0.0
 11
678.6663674133697
 21
454.6216374085279
 31
0.0
  0
LINE
  5
80
330
2
100
AcDbEntity
  8
OUTLINE
  6
CONTINUOUS
 48
25.4
100
AcDbLine
 10
678.6396944033697
 20
454.6244991165279
 30
0.0
 11
678.6550654208697
 21
454.6091280990281
 31
0.0
  0
LINE
  5
81
330
2
100
AcDbEntity
  8
OUTLINE
  6
CONTINUOUS
 48
25.4
100
AcDbLine
 10
678.6300513918697
 20
454.6064165910278
 30
0.0
 11
678.6419055438698
 21
454.5945624390281
 31
0.0
  0
LINE
  5
82
330
2
100
AcDbEntity
  8
OUTLINE
  6
CONTINUOUS
 48
25.4
100
AcDbLine
 10
678.6130567288697
 20
454.575593086028
 30
0.0
 11
678.6192087348697
 21
454.5694410795281
 31
0.0
  0
LINE
  5
83
330
2
100
AcDbEntity
  8
OUTLINE
  6
CONTINUOUS
 48
25.4
100
AcDbLine
 10
678.5923917053696
 20
454.612156823028
 30
0.0
 11
678.6267550313697
 21
454.577793497028
 31
0.0
  0
LINE
  5
84
330
2
100
AcDbEntity
  8
OUTLINE
  6
CONTINUOUS
 48
25.4
100
AcDbLine
 10
678.4557539828696
 20
454.4595435585281
 30
0.0
 11
678.4601546928699
 21
454.4551428480281
 31
0.0
  0
LINE
  5
85
330
2
100
AcDbEntity
  8
OUTLINE
  6
CONTINUOUS
 48
25.4
100
AcDbLine
 10
678.4519432008697
 20
454.3135561670281
 30
0.0
 11
678.5089355443695
 21
454.256563823528
 31
0.0
  0
LINE
  5
86
330
2
100
AcDbEntity
  8
OUTLINE
  6
CONTINUOUS
 48
25.4
100
AcDbLine
 10
678.7589958848696
 20
454.8604045455281
 30
0.0
 11
678.7543960063698
 21
454.854596390028
 31
0.0
  0
LINE
  5
87
330
2
100
AcDbEntity
  8
OUTLINE
  6
CONTINUOUS
 48
25.4
100
AcDbLine
 10
678.7705562188697
 20
454.8748481550281
 30
0.0
 11
678.7589958848696
 21
454.8604045455281
 31
0.0
  0
LINE
  5
88
330
2
100
AcDbEntity
  8
OUTLINE
  6
CONTINUOUS
 48
25.4
100
AcDbLine
 10
678.7880376313697
 20
454.896549705528
 30
0.0
 11
678.7705562188697
 21
454.8748481550281
 31
0.0
  0
LINE
  5
89
330
2
100
AcDbEntity
  8
OUTLINE
  6
CONTINUOUS
 48
25.4
100
AcDbLine
 10
678.8104020098698
 20
454.9241304190278
 30
0.0
 11
678.7880376313697
 21
454.896549705528
 31
0.0
  0
LINE
  5
8A
330
2
100
AcDbEntity
  8
OUTLINE
  6
CONTINUOUS
 48
25.4
100
AcDbLine
 10
678.8366107563696
 20
454.9562120035282
 30
0.0
 11
678.8104020098698
 21
454.9241304190278
 31
0.0
  0
LINE
  5
8B
330
2
100
AcDbEntity
  8
OUTLINE
  6
CONTINUOUS
 48
25.4
100
AcDbLine
 10
678.8780307808697
 20
455.0062998215279
 30
0.0
 11
678.8366107563696
 21
454.9562120035282
 31
0.0
  0
LINE
  5
8C
330
2
100
AcDbEntity
  8
OUTLINE
  6
CONTINUOUS
 48
25.4
100
AcDbLine
 10
679.1361256128697
 20
455.320275345528
 30
0.0
 11
679.1084188418697
 21
455.2897808640278
 31
0.0
  0
LINE
  5
8D
330
2
100
AcDbEntity
  8
OUTLINE
  6
CONTINUOUS
 48
25.4
100
AcDbLine
 10
679.1602886778697
 20
455.3456924190278
 30
0.0
 11
679.1361256128697
 21
455.320275345528
 31
0.0
  0
LINE
  5
8E
330
2
100
AcDbEntity
  8
OUTLINE
  6
CONTINUOUS
 48
25.4
100
AcDbLine
 10
679.1798200503697
 20
455.364655051528
 30
0.0
 11
679.1602886778697
 21
455.3456924190278
 31
0.0
  0
LINE
  5
8F
330
2
100
AcDbEntity
  8
OUTLINE
  6
CONTINUOUS
 48
25.4
100
AcDbLine
 10
679.1936314458696
 20
455.375786504528
 30
0.0
 11
679.1798200503697
 21
455.364655051528
 31
0.0
  0
LINE
  5
90
330
2
100
AcDbEntity
  8
OUTLINE
  6
CONTINUOUS
 48
25.4
100
AcDbLine
 10
679.2006361223696
 20
455.3777085005281
 30
0.0
 11
679.1936314458696
 21
455.375786504528
 31
0.0
  0
LINE
  5
91
330
2
100
AcDbEntity
  8
OUTLINE
  6
CONTINUOUS
 48
25.4
100
AcDbLine
 10
679.2012650473698
 20
455.374518006528
 30
0.0
 11
679.2006361223696
 21
455.3777085005281
 31
0.0
  0
LINE
  5
92
330
2
100
AcDbEntity
  8
OUTLINE
  6
CONTINUOUS
 48
25.4
100
AcDbLine
 10
679.1997761338698
 20
455.3684736830279
 30
0.0
 11
679.2012650473698
 21
455.374518006528
 31
0.0
  0
LINE
  5
93
330
2
100
AcDbEntity
  8
OUTLINE
  6
CONTINUOUS
 48
25.4
100
AcDbLine
 10
679.1963382893697
 20
455.3597903280278
 30
0.0
 11
679.1997761338698
 21
455.3684736830279
 31
0.0
  0
LINE
  5
94
330
2
100
AcDbEntity
  8
OUTLINE
  6
CONTINUOUS
 48
25.4
100
AcDbLine
 10
679.1911207103697
 20
455.3486824510279
 30
0.0
 11
679.1963382893697
 21
455.3597903280278
 31
0.0
  0
LINE
  5
95
330
2
100
AcDbEntity
  8
OUTLINE
  6
CONTINUOUS
 48
25.4
100
AcDbLine
 10
679.1842927828697
 20
455.3353643725281
 30
0.0
 11
679.1911207103697
 21
455.3486824510279
 31
0.0
  0
LINE
  5
96
330
2
100
AcDbEntity
  8
OUTLINE
  6
CONTINUOUS
 48
25.4
100
AcDbLine
 10
679.1760239868696
 20
455.3200503185279
 30
0.0
 11
679.1842927828697
 21
455.3353643725281
 31
0.0
  0
LINE
  5
97
330
2
100
AcDbEntity
  8
OUTLINE
  6
CONTINUOUS
 48
25.4
100
AcDbLine
 10
679.1612899113697
 20
455.2938053935279
 30
0.0
 11
679.1760239868696
 21
455.3200503185279
 31
0.0
  0
LINE
  5
98
330
2
100
AcDbEntity
  8
OUTLINE
  6
CONTINUOUS
 48
25.4
100
AcDbLine
 10
679.1442669123697
 20
455.264274839028
 30
0.0
 11
679.1612899113697
 21
455.2938053935279
 31
0.0
  0
LINE
  5
99
330
2
100
AcDbEntity
  8
OUTLINE
  6
CONTINUOUS
 48
25.4
100
AcDbLine
 10
678.9851190858695
 20
454.972633930028
 30
0.0
 11
679.1442669123697
 21
455.264274839028
 31
0.0
  0
LINE
  5
9A
330
2
100
AcDbEntity
  8
OUTLINE
  6
CONTINUOUS
 48
25.4
100
AcDbLine
 10
678.9673190623696
 20
454.9519281480279
 30
0.0
 11
678.9851190858695
 21
454.972633930028
 31
0.0
  0
LINE
  5
9B
330
2
100
AcDbEntity
  8
OUTLINE
  6
CONTINUOUS
 48
25.4
100
AcDbLine
 10
678.9499800033695
 20
454.9318611920281
 30
0.0
 11
678.9673190623696
 21
454.9519281480279
 31
0.0
  0
LINE
  5
9C
330
2
100
AcDbEntity
  8
OUTLINE
  6
CONTINUOUS
 48
25.4
100
AcDbLine
 10
678.9167784343696
 20
454.8937537260281
 30
0.0
 11
678.9499800033695
 21
454.9318611920281
 31
0.0
  0
LINE
  5
9D
330
2
100
AcDbEntity
  8
OUTLINE
  6
CONTINUOUS
 48
25.4
100
AcDbLine
 10
678.8856887133697
 20
454.8585136260279
 30
0.0
 11
678.9167784343696
 21
454.8937537260281
 31
0.0
  0
LINE
  5
9E
330
2
100
AcDbEntity
  8
OUTLINE
  6
CONTINUOUS
 48
25.4
100
AcDbLine
 10
679.0214297398696
 20
455.1057244190277
 30
0.0
 11
678.8856887133697
 21
454.8585136260279
 31
0.0
  0
LINE
  5
9F
330
2
100
AcDbEntity
  8
OUTLINE
  6
CONTINUOUS
 48
25.4
100
AcDbLine
 10
679.0389633458698
 20
455.1362538295282
 30
0.0
 11
679.0214297398696
 21
455.1057244190277
 31
0.0
  0
LINE
  5
A0
330
2
100
AcDbEntity
  8
OUTLINE
  6
CONTINUOUS
 48
25.4
100
AcDbLine
 10
679.0541835758697
 20
455.1634291335278
 30
0.0
 11
679.0389633458698
 21
455.1362538295282
 31
0.0
  0
LINE
  5
A1
330
2
100
AcDbEntity
  8
OUTLINE
  6
CONTINUOUS
 48
25.4
100
AcDbLine
 10
679.0627463743696
 20
455.1793018745279
 30
0.0
 11
679.0541835758697
 21
455.1634291335278
 31
0.0
  0
LINE
  5
A2
330
2
100
AcDbEntity
  8
OUTLINE
  6
CONTINUOUS
 48
25.4
100
AcDbLine
 10
679.0698326383697
 20
455.1931129460278
 30
0.0
 11
679.0627463743696
 21
455.1793018745279
 31
0.0
  0
LINE
  5
A3
330
2
100
AcDbEntity
  8
OUTLINE
  6
CONTINUOUS
 48
25.4
100
AcDbLine
 10
679.0752629478697
 20
455.2046340390281
 30
0.0
 11
679.0698326383697
 21
455.1931129460278
 31
0.0
  0
LINE
  5
A4
330
2
100
AcDbEntity
  8
OUTLINE
  6
CONTINUOUS
 48
25.4
100
AcDbLine
 10
679.0788579778697
 20
455.2136367505278
 30
0.0
 11
679.0752629478697
 21
455.2046340390281
 31
0.0
  0
LINE
  5
A5
330
2
100
AcDbEntity
  8
OUTLINE
  6
CONTINUOUS
 48
25.4
100
AcDbLine
 10
679.0804386018698
 20
455.2198924770282
 30
0.0
 11
679.0788579778697
 21
455.2136367505278
 31
0.0
  0
LINE
  5
A6
330
2
100
AcDbEntity
  8
OUTLINE
  6
CONTINUOUS
 48
25.4
100
AcDbLine
 10
679.0798260033697
 20
455.223172307028
 30
0.0
 11
679.0804386018698
 21
455.2198924770282
 31
0.0
  0
LINE
  5
A7
330
2
100
AcDbEntity
  8
OUTLINE
  6
CONTINUOUS
 48
25.4
100
AcDbLine
 10
679.0729248158697
 20
455.2212597490281
 30
0.0
 11
679.0798260033697
 21
455.223172307028
 31
0.0
  0
LINE
  5
A8
330
2
100
AcDbEntity
  8
OUTLINE
  6
CONTINUOUS
 48
25.4
100
AcDbLine
 10
679.0593248408697
 20
455.2102223125281
 30
0.0
 11
679.0729248158697
 21
455.2212597490281
 31
0.0
  0
LINE
  5
A9
330
2
100
AcDbEntity
  8
OUTLINE
  6
CONTINUOUS
 48
25.4
100
AcDbLine
 10
679.0400875698695
 20
455.1914153975281
 30
0.0
 11
679.0593248408697
 21
455.2102223125281
 31
0.0
  0
LINE
  5
AA
330
2
100
AcDbEntity
  8
OUTLINE
  6
CONTINUOUS
 48
25.4
100
AcDbLine
 10
679.0162760238696
 20
455.1661928730278
 30
0.0
 11
679.0400875698695
 21
455.1914153975281
 31
0.0
  0
LINE
  5
AB
330
2
100
AcDbEntity
  8
OUTLINE
  6
CONTINUOUS
 48
25.4
100
AcDbLine
 10
678.9889529673697
 20
455.1359088645281
 30
0.0
 11
679.0162760238696
 21
455.1661928730278
 31
0.0
  0
LINE
  5
AC
330
2
100
AcDbEntity
  8
OUTLINE
  6
CONTINUOUS
 48
25.4
100
AcDbLine
 10
678.9384918723698
 20
455.077871480528
 30
0.0
 11
678.9889529673697
 21
455.1359088645281
 31
0.0
  0
LINE
  5
AD
330
2
100
AcDbEntity
  8
OUTLINE
  6
CONTINUOUS
 48
25.4
100
AcDbLine
 10
678.8861166083695
 20
455.0158372850281
 30
0.0
 11
678.9384918723698
 21
455.077871480528
 31
0.0
  0
LINE
  5
AE
330
2
100
AcDbEntity
  8
OUTLINE
  6
CONTINUOUS
 48
25.4
100
AcDbLine
 10
678.8366923958697
 20
454.9561303645279
 30
0.0
 11
678.8861166083695
 21
455.0158372850281
 31
0.0
  0
LINE
  5
AF
330
2
100
AcDbEntity
  8
OUTLINE
  6
CONTINUOUS
 48
25.4
100
AcDbLine
 10
678.8104673263697
 20
454.9240651030278
 30
0.0
 11
678.8366923958697
 21
454.9561303645279
 31
0.0
  0
LINE
  5
B0
330
2
100
AcDbEntity
  8
OUTLINE
  6
CONTINUOUS
 48
25.4
100
AcDbLine
 10
678.7880866218696
 20
454.8965007150278
 30
0.0
 11
678.8104673263697
 21
454.9240651030278
 31
0.0
  0
LINE
  5
B1
330
2
100
AcDbEntity
  8
OUTLINE
  6
CONTINUOUS
 48
25.4
100
AcDbLine
 10
678.7705888808696
 20
454.874815493028
 30
0.0
 11
678.7880866218696
 21
454.8965007150278
 31
0.0
  0
LINE
  5
B2
330
2
100
AcDbEntity
  8
OUTLINE
  6
CONTINUOUS
 48
25.4
100
AcDbLine
 10
678.7590122163698
 20
454.8603882135282
 30
0.0
 11
678.7705888808696
 21
454.874815493028
 31
0.0
  0
LINE
  5
B3
330
2
100
AcDbEntity
  8
OUTLINE
  6
CONTINUOUS
 48
25.4
100
AcDbLine
 10
678.7543960063698
 20
454.854596390028
 30
0.0
 11
678.7590122163698
 21
454.8603882135282
 31
0.0
  0
LINE
  5
B4
330
2
100
AcDbEntity
  8
OUTLINE
  6
CONTINUOUS
 48
25.4
100
AcDbLine
 10
679.0798260033697
 20
455.223172307028
 30
0.0
 11
679.1070055348698
 21
455.1959927755278
 31
0.0
  0
LINE
  5
B5
330
2
100
AcDbEntity
  8
OUTLINE
  6
CONTINUOUS
 48
25.4
100
AcDbLine
 10
679.0804386018698
 20
455.2198924770282
 30
0.0
 11
679.1060638873696
 21
455.1942671915281
 31
0.0
  0
LINE
  5
B6
330
2
100
AcDbEntity
  8
OUTLINE
  6
CONTINUOUS
 48
25.4
100
AcDbLine
 10
679.0788579778697
 20
455.2136367505278
 30
0.0
 11
679.1032973183697
 21
455.1891974100279
 31
0.0
  0
LINE
  5
B7
330
2
100
AcDbEntity
  8
OUTLINE
  6
CONTINUOUS
 48
25.4
100
AcDbLine
 10
679.0752629478697
 20
455.2046340390281
 30
0.0
 11
679.0988497733698
 21
455.1810472135279
 31
0.0
  0
LINE
  5
B8
330
2
100
AcDbEntity
  8
OUTLINE
  6
CONTINUOUS
 48
25.4
100
AcDbLine
 10
679.0698326383697
 20
455.1931129460278
 30
0.0
 11
679.0928651983696
 21
455.1700803855281
 31
0.0
  0
LINE
  5
B9
330
2
100
AcDbEntity
  8
OUTLINE
  6
CONTINUOUS
 48
25.4
100
AcDbLine
 10
679.0627463743696
 20
455.1793018745279
 30
0.0
 11
679.0854875398696
 21
455.1565607090281
 31
0.0
  0
LINE
  5
BA
330
2
100
AcDbEntity
  8
OUTLINE
  6
CONTINUOUS
 48
25.4
100
AcDbLine
 10
679.0541835758697
 20
455.1634291335278
 30
0.0
 11
679.0768607423697
 21
455.1407519670281
 31
0.0
  0
LINE
  5
BB
330
2
100
AcDbEntity
  8
OUTLINE
  6
CONTINUOUS
 48
25.4
100
AcDbLine
 10
679.0389633458698
 20
455.1362538295282
 30
0.0
 11
679.0618932943697
 21
455.113323881028
 31
0.0
  0
LINE
  5
BC
330
2
100
AcDbEntity
  8
OUTLINE
  6
CONTINUOUS
 48
25.4
100
AcDbLine
 10
679.0214297398696
 20
455.1057244190277
 30
0.0
 11
679.0449249808697
 21
455.0822291785278
 31
0.0
  0
LINE
  5
BD
330
2
100
AcDbEntity
  8
OUTLINE
  6
CONTINUOUS
 48
25.4
100
AcDbLine
 10
679.1936314458696
 20
455.375786504528
 30
0.0
 11
679.2000070108697
 21
455.369410940028
 31
0.0
  0
LINE
  5
BE
330
2
100
AcDbEntity
  8
OUTLINE
  6
CONTINUOUS
 48
25.4
100
AcDbLine
 10
679.1798200503697
 20
455.364655051528
 30
0.0
 11
679.1926138518697
 21
455.3518612495278
 31
0.0
  0
LINE
  5
BF
330
2
100
AcDbEntity
  8
OUTLINE
  6
CONTINUOUS
 48
25.4
100
AcDbLine
 10
679.1602886778697
 20
455.3456924190278
 30
0.0
 11
679.1794975808698
 21
455.326483516528
 31
0.0
  0
LINE
  5
C0
330
2
100
AcDbEntity
  8
OUTLINE
  6
CONTINUOUS
 48
25.4
100
AcDbLine
 10
679.1361256128697
 20
455.320275345528
 30
0.0
 11
679.1617593613698
 21
455.2946415965281
 31
0.0
  0
LINE
  5
C1
330
2
100
AcDbEntity
  8
OUTLINE
  6
CONTINUOUS
 48
25.4
100
AcDbLine
 10
679.1084188418697
 20
455.2897808640278
 30
0.0
 11
679.1406157253696
 21
455.257583981028
 31
0.0
  0
LINE
  5
C2
330
2
100
AcDbEntity
  8
OUTLINE
  6
CONTINUOUS
 48
25.4
100
AcDbLine
 10
678.8737414523698
 20
455.0105891505278
 30
0.0
 11
678.8781352263697
 21
455.006195376528
 31
0.0
  0
LINE
  5
C3
330
2
100
AcDbEntity
  8
OUTLINE
  6
CONTINUOUS
 48
25.4
100
AcDbLine
 10
679.3084289223697
 20
455.3308528335279
 30
0.0
 11
679.2864243023696
 21
455.3056513925279
 31
0.0
  0
LINE
  5
C4
330
2
100
AcDbEntity
  8
OUTLINE
  6
CONTINUOUS
 48
25.4
100
AcDbLine
 10
679.3310103328697
 20
455.3568617510278
 30
0.0
 11
679.3084289223697
 21
455.3308528335279
 31
0.0
  0
LINE
  5
C5
330
2
100
AcDbEntity
  8
OUTLINE
  6
CONTINUOUS
 48
25.4
100
AcDbLine
 10
679.3619507348697
 20
455.3927210120279
 30
0.0
 11
679.3310103328697
 21
455.3568617510278
 31
0.0
  0
LINE
  5
C6
330
2
100
AcDbEntity
  8
OUTLINE
  6
CONTINUOUS
 48
25.4
100
AcDbLine
 10
679.3937547663696
 20
455.4298280370278
 30
0.0
 11
679.3619507348697
 21
455.3927210120279
 31
0.0
  0
LINE
  5
C7
330
2
100
AcDbEntity
  8
OUTLINE
  6
CONTINUOUS
 48
25.4
100
AcDbLine
 10
679.4263225778697
 20
455.468064920528
 30
0.0
 11
679.3937547663696
 21
455.4298280370278
 31
0.0
  0
LINE
  5
C8
330
2
100
AcDbEntity
  8
OUTLINE
  6
CONTINUOUS
 48
25.4
100
AcDbLine
 10
679.4184257493697
 20
455.4638397930282
 30
0.0
 11
679.4263225778697
 21
455.468064920528
 31
0.0
  0
LINE
  5
C9
330
2
100
AcDbEntity
  8
OUTLINE
  6
CONTINUOUS
 48
25.4
100
AcDbLine
 10
679.4114148483697
 20
455.460671685028
 30
0.0
 11
679.4184257493697
 21
455.4638397930282
 31
0.0
  0
LINE
  5
CA
330
2
100
AcDbEntity
  8
OUTLINE
  6
CONTINUOUS
 48
25.4
100
AcDbLine
 10
679.4035420168698
 20
455.4582164210279
 30
0.0
 11
679.4114148483697
 21
455.460671685028
 31
0.0
  0
LINE
  5
CB
330
2
100
AcDbEntity
  8
OUTLINE
  6
CONTINUOUS
 48
25.4
100
AcDbLine
 10
679.3974769293697
 20
455.4579392705282
 30
0.0
 11
679.4035420168698
 21
455.4582164210279
 31
0.0
  0
LINE
  5
CC
330
2
100
AcDbEntity
  8
OUTLINE
  6
CONTINUOUS
 48
25.4
100
AcDbLine
 10
679.3933528823697
 20
455.4600107815278
 30
0.0
 11
679.3974769293697
 21
455.4579392705282
 31
0.0
  0
LINE
  5
CD
330
2
100
AcDbEntity
  8
OUTLINE
  6
CONTINUOUS
 48
25.4
100
AcDbLine
 10
679.3911063783697
 20
455.4714432465281
 30
0.0
 11
679.3933528823697
 21
455.4600107815278
 31
0.0
  0
LINE
  5
CE
330
2
100
AcDbEntity
  8
OUTLINE
  6
CONTINUOUS
 48
25.4
100
AcDbLine
 10
679.3960984418697
 20
455.4915938815279
 30
0.0
 11
679.3911063783697
 21
455.4714432465281
 31
0.0
  0
LINE
  5
CF
330
2
100
AcDbEntity
  8
OUTLINE
  6
CONTINUOUS
 48
25.4
100
AcDbLine
 10
679.4072530658695
 20
455.5190788430281
 30
0.0
 11
679.3960984418697
 21
455.4915938815279
 31
0.0
  0
LINE
  5
D0
330
2
100
AcDbEntity
  8
OUTLINE
  6
CONTINUOUS
 48
25.4
100
AcDbLine
 10
679.4234955758697
 20
455.552512951028
 30
0.0
 11
679.4072530658695
 21
455.5190788430281
 31
0.0
  0
LINE
  5
D1
330
2
100
AcDbEntity
  8
OUTLINE
  6
CONTINUOUS
 48
25.4
100
AcDbLine
 10
679.4437508183697
 20
455.5905115080281
 30
0.0
 11
679.4234955758697
 21
455.552512951028
 31
0.0
  0
LINE
  5
D2
330
2
100
AcDbEntity
  8
OUTLINE
  6
CONTINUOUS
 48
25.4
100
AcDbLine
 10
679.4834999978696
 20
455.6602313140277
 30
0.0
 11
679.4437508183697
 21
455.5905115080281
 31
0.0
  0
LINE
  5
D3
330
2
100
AcDbEntity
  8
OUTLINE
  6
CONTINUOUS
 48
25.4
100
AcDbLine
 10
679.5263960663698
 20
455.7324086025279
 30
0.0
 11
679.4834999978696
 21
455.6602313140277
 31
0.0
  0
LINE
  5
D4
330
2
100
AcDbEntity
  8
OUTLINE
  6
CONTINUOUS
 48
25.4
100
AcDbLine
 10
679.5674026183697
 20
455.8006915730278
 30
0.0
 11
679.5263960663698
 21
455.7324086025279
 31
0.0
  0
LINE
  5
D5
330
2
100
AcDbEntity
  8
OUTLINE
  6
CONTINUOUS
 48
25.4
100
AcDbLine
 10
679.5889931228697
 20
455.8371610470279
 30
0.0
 11
679.5674026183697
 21
455.8006915730278
 31
0.0
  0
LINE
  5
D6
330
2
100
AcDbEntity
  8
OUTLINE
  6
CONTINUOUS
 48
25.4
100
AcDbLine
 10
679.6069815273696
 20
455.868590833528
 30
0.0
 11
679.5889931228697
 21
455.8371610470279
 31
0.0
  0
LINE
  5
D7
330
2
100
AcDbEntity
  8
OUTLINE
  6
CONTINUOUS
 48
25.4
100
AcDbLine
 10
679.6202675133697
 20
455.8936213990278
 30
0.0
 11
679.6069815273696
 21
455.868590833528
 31
0.0
  0
LINE
  5
D8
330
2
100
AcDbEntity
  8
OUTLINE
  6
CONTINUOUS
 48
25.4
100
AcDbLine
 10
679.6277504083697
 20
455.9108935620279
 30
0.0
 11
679.6202675133697
 21
455.8936213990278
 31
0.0
  0
LINE
  5
D9
330
2
100
AcDbEntity
  8
OUTLINE
  6
CONTINUOUS
 48
25.4
100
AcDbLine
 10
679.6283310183697
 20
455.9190466660282
 30
0.0
 11
679.6277504083697
 21
455.9108935620279
 31
0.0
  0
LINE
  5
DA
330
2
100
AcDbEntity
  8
OUTLINE
  6
CONTINUOUS
 48
25.4
100
AcDbLine
 10
679.6212784413698
 20
455.917172571028
 30
0.0
 11
679.6283310183697
 21
455.9190466660282
 31
0.0
  0
LINE
  5
DB
330
2
100
AcDbEntity
  8
OUTLINE
  6
CONTINUOUS
 48
25.4
100
AcDbLine
 10
679.6073254358697
 20
455.9061827275278
 30
0.0
 11
679.6212784413698
 21
455.917172571028
 31
0.0
  0
LINE
  5
DC
330
2
100
AcDbEntity
  8
OUTLINE
  6
CONTINUOUS
 48
25.4
100
AcDbLine
 10
679.5875731068697
 20
455.8874410520282
 30
0.0
 11
679.6073254358697
 21
455.9061827275278
 31
0.0
  0
LINE
  5
DD
330
2
100
AcDbEntity
  8
OUTLINE
  6
CONTINUOUS
 48
25.4
100
AcDbLine
 10
679.5631240868697
 20
455.8623099330278
 30
0.0
 11
679.5875731068697
 21
455.8874410520282
 31
0.0
  0
LINE
  5
DE
330
2
100
AcDbEntity
  8
OUTLINE
  6
CONTINUOUS
 48
25.4
100
AcDbLine
 10
679.5350807073697
 20
455.8321520600281
 30
0.0
 11
679.5631240868697
 21
455.8623099330278
 31
0.0
  0
LINE
  5
DF
330
2
100
AcDbEntity
  8
OUTLINE
  6
CONTINUOUS
 48
25.4
100
AcDbLine
 10
679.4833421958696
 20
455.774425574028
 30
0.0
 11
679.5350807073697
 21
455.8321520600281
 31
0.0
  0
LINE
  5
E0
330
2
100
AcDbEntity
  8
OUTLINE
  6
CONTINUOUS
 48
25.4
100
AcDbLine
 10
679.2597451503696
 20
455.502110671528
 30
0.0
 11
679.3016983473697
 21
455.5516653165279
 31
0.0
  0
LINE
  5
E1
330
2
100
AcDbEntity
  8
OUTLINE
  6
CONTINUOUS
 48
25.4
100
AcDbLine
 10
679.2331964243697
 20
455.470369066528
 30
0.0
 11
679.2597451503696
 21
455.502110671528
 31
0.0
  0
LINE
  5
E2
330
2
100
AcDbEntity
  8
OUTLINE
  6
CONTINUOUS
 48
25.4
100
AcDbLine
 10
679.2105405513698
 20
455.4430798470279
 30
0.0
 11
679.2331964243697
 21
455.470369066528
 31
0.0
  0
LINE
  5
E3
330
2
100
AcDbEntity
  8
OUTLINE
  6
CONTINUOUS
 48
25.4
100
AcDbLine
 10
679.1928303253698
 20
455.4216071095279
 30
0.0
 11
679.2105405513698
 21
455.4430798470279
 31
0.0
  0
LINE
  5
E4
330
2
100
AcDbEntity
  8
OUTLINE
  6
CONTINUOUS
 48
25.4
100
AcDbLine
 10
679.1811180603697
 20
455.4073154310279
 30
0.0
 11
679.1928303253698
 21
455.4216071095279
 31
0.0
  0
LINE
  5
E5
330
2
100
AcDbEntity
  8
OUTLINE
  6
CONTINUOUS
 48
25.4
100
AcDbLine
 10
679.1764573278697
 20
455.4015681305282
 30
0.0
 11
679.1811180603697
 21
455.4073154310279
 31
0.0
  0
LINE
  5
E6
330
2
100
AcDbEntity
  8
OUTLINE
  6
CONTINUOUS
 48
25.4
100
AcDbLine
 10
679.1811343678697
 20
455.407299123528
 30
0.0
 11
679.1764573278697
 21
455.4015681305282
 31
0.0
  0
LINE
  5
E7
330
2
100
AcDbEntity
  8
OUTLINE
  6
CONTINUOUS
 48
25.4
100
AcDbLine
 10
679.1928629393697
 20
455.421574495528
 30
0.0
 11
679.1811343678697
 21
455.407299123528
 31
0.0
  0
LINE
  5
E8
330
2
100
AcDbEntity
  8
OUTLINE
  6
CONTINUOUS
 48
25.4
100
AcDbLine
 10
679.2105894698697
 20
455.443030928528
 30
0.0
 11
679.1928629393697
 21
455.421574495528
 31
0.0
  0
LINE
  5
E9
330
2
100
AcDbEntity
  8
OUTLINE
  6
CONTINUOUS
 48
25.4
100
AcDbLine
 10
679.2332616448695
 20
455.4703038455281
 30
0.0
 11
679.2105894698697
 21
455.443030928528
 31
0.0
  0
LINE
  5
EA
330
2
100
AcDbEntity
  8
OUTLINE
  6
CONTINUOUS
 48
25.4
100
AcDbLine
 10
679.2598266708697
 20
455.5020291510281
 30
0.0
 11
679.2332616448695
 21
455.4703038455281
 31
0.0
  0
LINE
  5
EB
330
2
100
AcDbEntity
  8
OUTLINE
  6
CONTINUOUS
 48
25.4
100
AcDbLine
 10
679.3098867008697
 20
455.5611002535281
 30
0.0
 11
679.2598266708697
 21
455.5020291510281
 31
0.0
  0
LINE
  5
EC
330
2
100
AcDbEntity
  8
OUTLINE
  6
CONTINUOUS
 48
25.4
100
AcDbLine
 10
679.3629274973698
 20
455.6224689170281
 30
0.0
 11
679.3098867008697
 21
455.5611002535281
 31
0.0
  0
LINE
  5
ED
330
2
100
AcDbEntity
  8
OUTLINE
  6
CONTINUOUS
 48
25.4
100
AcDbLine
 10
679.4140184153697
 20
455.6798764780277
 30
0.0
 11
679.3629274973698
 21
455.6224689170281
 31
0.0
  0
LINE
  5
EE
330
2
100
AcDbEntity
  8
OUTLINE
  6
CONTINUOUS
 48
25.4
100
AcDbLine
 10
679.4416750578696
 20
455.709826900028
 30
0.0
 11
679.4140184153697
 21
455.6798764780277
 31
0.0
  0
LINE
  5
EF
330
2
100
AcDbEntity
  8
OUTLINE
  6
CONTINUOUS
 48
25.4
100
AcDbLine
 10
679.4657697393699
 20
455.734766289528
 30
0.0
 11
679.4416750578696
 21
455.709826900028
 31
0.0
  0
LINE
  5
F0
330
2
100
AcDbEntity
  8
OUTLINE
  6
CONTINUOUS
 48
25.4
100
AcDbLine
 10
679.4852256113696
 20
455.7533546035281
 30
0.0
 11
679.4657697393699
 21
455.734766289528
 31
0.0
  0
LINE
  5
F1
330
2
100
AcDbEntity
  8
OUTLINE
  6
CONTINUOUS
 48
25.4
100
AcDbLine
 10
679.4989655648698
 20
455.7642520610278
 30
0.0
 11
679.4852256113696
 21
455.7533546035281
 31
0.0
  0
LINE
  5
F2
330
2
100
AcDbEntity
  8
OUTLINE
  6
CONTINUOUS
 48
25.4
100
AcDbLine
 10
679.5059140083695
 20
455.7661173635279
 30
0.0
 11
679.4989655648698
 21
455.7642520610278
 31
0.0
  0
LINE
  5
F3
330
2
100
AcDbEntity
  8
OUTLINE
  6
CONTINUOUS
 48
25.4
100
AcDbLine
 10
679.5053275923698
 20
455.757969035528
 30
0.0
 11
679.5059140083695
 21
455.7661173635279
 31
0.0
  0
LINE
  5
F4
330
2
100
AcDbEntity
  8
OUTLINE
  6
CONTINUOUS
 48
25.4
100
AcDbLine
 10
679.4978646413698
 20
455.740674007528
 30
0.0
 11
679.5053275923698
 21
455.757969035528
 31
0.0
  0
LINE
  5
F5
330
2
100
AcDbEntity
  8
OUTLINE
  6
CONTINUOUS
 48
25.4
100
AcDbLine
 10
679.4846204233697
 20
455.715597154028
 30
0.0
 11
679.4978646413698
 21
455.740674007528
 31
0.0
  0
LINE
  5
F6
330
2
100
AcDbEntity
  8
OUTLINE
  6
CONTINUOUS
 48
25.4
100
AcDbLine
 10
679.4666916858695
 20
455.6841018705278
 30
0.0
 11
679.4846204233697
 21
455.715597154028
 31
0.0
  0
LINE
  5
F7
330
2
100
AcDbEntity
  8
OUTLINE
  6
CONTINUOUS
 48
25.4
100
AcDbLine
 10
679.4451748233697
 20
455.6475519045282
 30
0.0
 11
679.4666916858695
 21
455.6841018705278
 31
0.0
  0
LINE
  5
F8
330
2
100
AcDbEntity
  8
OUTLINE
  6
CONTINUOUS
 48
25.4
100
AcDbLine
 10
679.4043113893697
 20
455.5791129235278
 30
0.0
 11
679.4451748233697
 21
455.6475519045282
 31
0.0
  0
LINE
  5
F9
330
2
100
AcDbEntity
  8
OUTLINE
  6
CONTINUOUS
 48
25.4
100
AcDbLine
 10
679.3615681158695
 20
455.5067692645281
 30
0.0
 11
679.4043113893697
 21
455.5791129235278
 31
0.0
  0
LINE
  5
FA
330
2
100
AcDbEntity
  8
OUTLINE
  6
CONTINUOUS
 48
25.4
100
AcDbLine
 10
679.3219631233697
 20
455.4368923570279
 30
0.0
 11
679.3615681158695
 21
455.5067692645281
 31
0.0
  0
LINE
  5
FB
330
2
100
AcDbEntity
  8
OUTLINE
  6
CONTINUOUS
 48
25.4
100
AcDbLine
 10
679.3017826328697
 20
455.398812177028
 30
0.0
 11
679.3219631233697
 21
455.4368923570279
 31
0.0
  0
LINE
  5
FC
330
2
100
AcDbEntity
  8
OUTLINE
  6
CONTINUOUS
 48
25.4
100
AcDbLine
 10
679.2856011988695
 20
455.3653111320281
 30
0.0
 11
679.3017826328697
 21
455.398812177028
 31
0.0
  0
LINE
  5
FD
330
2
100
AcDbEntity
  8
OUTLINE
  6
CONTINUOUS
 48
25.4
100
AcDbLine
 10
679.2744899978697
 20
455.3377781895281
 30
0.0
 11
679.2856011988695
 21
455.3653111320281
 31
0.0
  0
LINE
  5
FE
330
2
100
AcDbEntity
  8
OUTLINE
  6
CONTINUOUS
 48
25.4
100
AcDbLine
 10
679.2695197228697
 20
455.3176027995279
 30
0.0
 11
679.2744899978697
 21
455.3377781895281
 31
0.0
  0
LINE
  5
FF
330
2
100
AcDbEntity
  8
OUTLINE
  6
CONTINUOUS
 48
25.4
100
AcDbLine
 10
679.2717623993696
 20
455.3061730785279
 30
0.0
 11
679.2695197228697
 21
455.3176027995279
 31
0.0
  0
LINE
  5
100
330
2
100
AcDbEntity
  8
OUTLINE
  6
CONTINUOUS
 48
25.4
100
AcDbLine
 10
679.2752118868698
 20
455.3042488130278
 30
0.0
 11
679.2717623993696
 21
455.3061730785279
 31
0.0
  0
LINE
  5
101
330
2
100
AcDbEntity
  8
OUTLINE
  6
CONTINUOUS
 48
25.4
100
AcDbLine
 10
679.2801280348697
 20
455.3041120500281
 30
0.0
 11
679.2752118868698
 21
455.3042488130278
 31
0.0
  0
LINE
  5
102
330
2
100
AcDbEntity
  8
OUTLINE
  6
CONTINUOUS
 48
25.4
100
AcDbLine
 10
679.2864243023696
 20
455.3056513925279
 30
0.0
 11
679.2801280348697
 21
455.3041120500281
 31
0.0
  0
LINE
  5
103
330
2
100
AcDbEntity
  8
OUTLINE
  6
CONTINUOUS
 48
25.4
100
AcDbLine
 10
679.2695197228697
 20
455.3176027995279
 30
0.0
 11
679.2824442038697
 21
455.3046783185279
 31
0.0
  0
LINE
  5
104
330
2
100
AcDbEntity
  8
OUTLINE
  6
CONTINUOUS
 48
25.4
100
AcDbLine
 10
679.2744899978697
 20
455.3377781895281
 30
0.0
 11
679.2958368248697
 21
455.3164313625281
 31
0.0
  0
LINE
  5
105
330
2
100
AcDbEntity
  8
OUTLINE
  6
CONTINUOUS
 48
25.4
100
AcDbLine
 10
679.2856011988695
 20
455.3653111320281
 30
0.0
 11
679.3138340058698
 21
455.3370783250281
 31
0.0
  0
LINE
  5
106
330
2
100
AcDbEntity
  8
OUTLINE
  6
CONTINUOUS
 48
25.4
100
AcDbLine
 10
679.3017826328697
 20
455.398812177028
 30
0.0
 11
679.3369032703695
 21
455.363691539028
 31
0.0
  0
LINE
  5
107
330
2
100
AcDbEntity
  8
OUTLINE
  6
CONTINUOUS
 48
25.4
100
AcDbLine
 10
679.3219631233697
 20
455.4368923570279
 30
0.0
 11
679.3638885648697
 21
455.3949669155278
 31
0.0
  0
LINE
  5
108
330
2
100
AcDbEntity
  8
OUTLINE
  6
CONTINUOUS
 48
25.4
100
AcDbLine
 10
679.3615681158695
 20
455.5067692645281
 30
0.0
 11
679.3922555328697
 21
455.4760818480281
 31
0.0
  0
LINE
  5
109
330
2
100
AcDbEntity
  8
OUTLINE
  6
CONTINUOUS
 48
25.4
100
AcDbLine
 10
679.4043113893697
 20
455.5791129235278
 30
0.0
 11
679.4260740953697
 21
455.5573502175279
 31
0.0
  0
LINE
  5
10A
330
2
100
AcDbEntity
  8
OUTLINE
  6
CONTINUOUS
 48
25.4
100
AcDbLine
 10
679.4451748233697
 20
455.6475519045282
 30
0.0
 11
679.4649797718697
 21
455.6277469565278
 31
0.0
  0
LINE
  5
10B
330
2
100
AcDbEntity
  8
OUTLINE
  6
CONTINUOUS
 48
25.4
100
AcDbLine
 10
679.4666916858695
 20
455.6841018705278
 30
0.0
 11
679.4861326013698
 21
455.664660955028
 31
0.0
  0
LINE
  5
10C
330
2
100
AcDbEntity
  8
OUTLINE
  6
CONTINUOUS
 48
25.4
100
AcDbLine
 10
679.4846204233697
 20
455.715597154028
 30
0.0
 11
679.5045564678697
 21
455.6956611095281
 31
0.0
  0
LINE
  5
10D
330
2
100
AcDbEntity
  8
OUTLINE
  6
CONTINUOUS
 48
25.4
100
AcDbLine
 10
679.4978646413698
 20
455.740674007528
 30
0.0
 11
679.5188414713698
 21
455.7196971775281
 31
0.0
  0
LINE
  5
10E
330
2
100
AcDbEntity
  8
OUTLINE
  6
CONTINUOUS
 48
25.4
100
AcDbLine
 10
679.5053275923698
 20
455.757969035528
 30
0.0
 11
679.5280814953697
 21
455.7352151325278
 31
0.0
  0
LINE
  5
10F
330
2
100
AcDbEntity
  8
OUTLINE
  6
CONTINUOUS
 48
25.4
100
AcDbLine
 10
679.5059140083695
 20
455.7661173635279
 30
0.0
 11
679.5313588608697
 21
455.740672510528
 31
0.0
  0
LINE
  5
110
330
2
100
AcDbEntity
  8
OUTLINE
  6
CONTINUOUS
 48
25.4
100
AcDbLine
 10
679.2974152143697
 20
455.555948449528
 30
0.0
 11
679.3018026423697
 21
455.5515610215278
 31
0.0
  0
LINE
  5
111
330
2
100
AcDbEntity
  8
OUTLINE
  6
CONTINUOUS
 48
25.4
100
AcDbLine
 10
679.4833421958696
 20
455.774425574028
 30
0.0
 11
679.4959262533697
 21
455.7618415165278
 31
0.0
  0
LINE
  5
112
330
2
100
AcDbEntity
  8
OUTLINE
  6
CONTINUOUS
 48
25.4
100
AcDbLine
 10
679.5350807073697
 20
455.8321520600281
 30
0.0
 11
679.5670794033696
 21
455.8001533640281
 31
0.0
  0
LINE
  5
113
330
2
100
AcDbEntity
  8
OUTLINE
  6
CONTINUOUS
 48
25.4
100
AcDbLine
 10
679.5631240868697
 20
455.8623099330278
 30
0.0
 11
679.5887253238698
 21
455.8367086960279
 31
0.0
  0
LINE
  5
114
330
2
100
AcDbEntity
  8
OUTLINE
  6
CONTINUOUS
 48
25.4
100
AcDbLine
 10
679.5875731068697
 20
455.8874410520282
 30
0.0
 11
679.6067783398695
 21
455.8682358190278
 31
0.0
  0
LINE
  5
115
330
2
100
AcDbEntity
  8
OUTLINE
  6
CONTINUOUS
 48
25.4
100
AcDbLine
 10
679.6073254358697
 20
455.9061827275278
 30
0.0
 11
679.6201354913697
 21
455.8933726720281
 31
0.0
  0
LINE
  5
116
330
2
100
AcDbEntity
  8
OUTLINE
  6
CONTINUOUS
 48
25.4
100
AcDbLine
 10
679.6212784413698
 20
455.917172571028
 30
0.0
 11
679.6276920813697
 21
455.9107589305281
 31
0.0
  0
LINE
  5
117
330
2
100
AcDbEntity
  8
OUTLINE
  6
CONTINUOUS
 48
25.4
100
AcDbLine
 10
679.8860990353697
 20
456.1819760305281
 30
0.0
 11
681.0118276023696
 21
457.5316799425278
 31
0.0
  0
LINE
  5
118
330
2
100
AcDbEntity
  8
OUTLINE
  6
CONTINUOUS
 48
25.4
100
AcDbLine
 10
679.8726715563698
 20
456.1954035095279
 30
0.0
 11
679.8860990353697
 21
456.1819760305281
 31
0.0
  0
LINE
  5
119
330
2
100
AcDbEntity
  8
OUTLINE
  6
CONTINUOUS
 48
25.4
100
AcDbLine
 10
680.3464778743697
 20
456.7732609790278
 30
0.0
 11
679.8726715563698
 21
456.1954035095279
 31
0.0
  0
LINE
  5
11A
330
2
100
AcDbEntity
  8
OUTLINE
  6
CONTINUOUS
 48
25.4
100
AcDbLine
 10
680.3279017913696
 20
456.7918370620279
 30
0.0
 11
680.3464778743697
 21
456.7732609790278
 31
0.0
  0
LINE
  5
11B
330
2
100
AcDbEntity
  8
OUTLINE
  6
CONTINUOUS
 48
25.4
100
AcDbLine
 10
679.8540724008697
 20
456.2140026650278
 30
0.0
 11
680.3279017913696
 21
456.7918370620279
 31
0.0
  0
LINE
  5
11C
330
2
100
AcDbEntity
  8
OUTLINE
  6
CONTINUOUS
 48
25.4
100
AcDbLine
 10
679.8465496133696
 20
456.2215254525278
 30
0.0
 11
679.8540724008697
 21
456.2140026650278
 31
0.0
  0
LINE
  5
11D
330
2
100
AcDbEntity
  8
OUTLINE
  6
CONTINUOUS
 48
25.4
100
AcDbLine
 10
680.9723839668698
 20
457.5711235780278
 30
0.0
 11
680.6541173388698
 21
457.1896002725281
 31
0.0
  0
LINE
  5
11E
330
2
100
AcDbEntity
  8
OUTLINE
  6
CONTINUOUS
 48
25.4
100
AcDbLine
 10
680.5303791828698
 20
457.041268696528
 30
0.0
 11
679.8465496133696
 21
456.2215254525278
 31
0.0
  0
LINE
  5
11F
330
2
100
AcDbEntity
  8
OUTLINE
  6
CONTINUOUS
 48
25.4
100
AcDbLine
 10
680.9798866488696
 20
457.5636208960278
 30
0.0
 11
680.9723839668698
 21
457.5711235780278
 31
0.0
  0
LINE
  5
120
330
2
100
AcDbEntity
  8
OUTLINE
  6
CONTINUOUS
 48
25.4
100
AcDbLine
 10
680.5604286793696
 20
457.070118300028
 30
0.0
 11
680.9798866488696
 21
457.5636208960278
 31
0.0
  0
LINE
  5
121
330
2
100
AcDbEntity
  8
OUTLINE
  6
CONTINUOUS
 48
25.4
100
AcDbLine
 10
680.5789945913698
 20
457.051552388028
 30
0.0
 11
680.5604286793696
 21
457.070118300028
 31
0.0
  0
LINE
  5
122
330
2
100
AcDbEntity
  8
OUTLINE
  6
CONTINUOUS
 48
25.4
100
AcDbLine
 10
680.9984360628696
 20
457.5450714815278
 30
0.0
 11
680.5789945913698
 21
457.051552388028
 31
0.0
  0
LINE
  5
123
330
2
100
AcDbEntity
  8
OUTLINE
  6
CONTINUOUS
 48
25.4
100
AcDbLine
 10
681.0118276023696
 20
457.5316799425278
 30
0.0
 11
680.9984360628696
 21
457.5450714815278
 31
0.0
  0
LINE
  5
124
330
2
100
AcDbEntity
  8
OUTLINE
  6
CONTINUOUS
 48
25.4
100
AcDbLine
 10
680.1726090063697
 20
456.368714764028
 30
0.0
 11
679.9602651383698
 21
456.107809927528
 31
0.0
  0
LINE
  5
125
330
2
100
AcDbEntity
  8
OUTLINE
  6
CONTINUOUS
 48
25.4
100
AcDbLine
 10
680.1331800358696
 20
456.4081437345279
 30
0.0
 11
680.1726090063697
 21
456.368714764028
 31
0.0
  0
LINE
  5
126
330
2
100
AcDbEntity
  8
OUTLINE
  6
CONTINUOUS
 48
25.4
100
AcDbLine
 10
680.4081925938696
 20
456.7415937965281
 30
0.0
 11
680.1331800358696
 21
456.4081437345279
 31
0.0
  0
LINE
  5
127
330
2
100
AcDbEntity
  8
OUTLINE
  6
CONTINUOUS
 48
25.4
100
AcDbLine
 10
680.4360045268697
 20
456.7137818635281
 30
0.0
 11
680.4081925938696
 21
456.7415937965281
 31
0.0
  0
LINE
  5
128
330
2
100
AcDbEntity
  8
OUTLINE
  6
CONTINUOUS
 48
25.4
100
AcDbLine
 10
680.6445586293697
 20
456.9634526970279
 30
0.0
 11
680.4360045268697
 21
456.7137818635281
 31
0.0
  0
LINE
  5
129
330
2
100
AcDbEntity
  8
OUTLINE
  6
CONTINUOUS
 48
25.4
100
AcDbLine
 10
680.6167603998698
 20
456.991250926528
 30
0.0
 11
680.6445586293697
 21
456.9634526970279
 31
0.0
  0
LINE
  5
12A
330
2
100
AcDbEntity
  8
OUTLINE
  6
CONTINUOUS
 48
25.4
100
AcDbLine
 10
680.8284272198697
 20
457.241831620528
 30
0.0
 11
680.6167603998698
 21
456.991250926528
 31
0.0
  0
LINE
  5
12B
330
2
100
AcDbEntity
  8
OUTLINE
  6
CONTINUOUS
 48
25.4
100
AcDbLine
 10
680.8619952048696
 20
457.208263635528
 30
0.0
 11
680.8284272198697
 21
457.241831620528
 31
0.0
  0
LINE
  5
12C
330
2
100
AcDbEntity
  8
OUTLINE
  6
CONTINUOUS
 48
25.4
100
AcDbLine
 10
681.0800017813697
 20
457.463505763028
 30
0.0
 11
680.8619952048696
 21
457.208263635528
 31
0.0
  0
LINE
  5
12D
330
2
100
AcDbEntity
  8
OUTLINE
  6
CONTINUOUS
 48
25.4
100
AcDbLine
 10
681.0287666548697
 20
457.5147408900281
 30
0.0
 11
681.0800017813697
 21
457.463505763028
 31
0.0
  0
LINE
  5
12E
330
2
100
AcDbEntity
  8
OUTLINE
  6
CONTINUOUS
 48
25.4
100
AcDbLine
 10
679.9030835833697
 20
456.1649914825278
 30
0.0
 11
681.0287666548697
 21
457.5147408900281
 31
0.0
  0
LINE
  5
12F
330
2
100
AcDbEntity
  8
OUTLINE
  6
CONTINUOUS
 48
25.4
100
AcDbLine
 10
679.9602651383698
 20
456.107809927528
 30
0.0
 11
679.9030835833697
 21
456.1649914825278
 31
0.0
  0
LINE
  5
130
330
2
100
AcDbEntity
  8
OUTLINE
  6
CONTINUOUS
 48
25.4
100
AcDbLine
 10
695.2976561333697
 20
400.4819171865281
 30
0.0
 11
720.6343086508695
 21
400.4819171865281
 31
0.0
  0
LINE
  5
131
330
2
100
AcDbEntity
  8
OUTLINE
  6
CONTINUOUS
 48
25.4
100
AcDbLine
 10
678.9187055083697
 20
400.4819171865281
 30
0.0
 11
673.9375292038698
 21
400.4819171865281
 31
0.0
  0
LINE
  5
132
330
2
100
AcDbEntity
  8
OUTLINE
  6
CONTINUOUS
 48
25.4
100
AcDbLine
 10
718.9869860988697
 20
462.4819171865281
 30
0.0
 11
718.4673822803699
 21
477.3614237440281
 31
0.0
  0
LINE
  5
133
330
2
100
AcDbEntity
  8
OUTLINE
  6
CONTINUOUS
 48
25.4
100
AcDbLine
 10
721.1340040643698
 20
400.9993669350279
 30
0.0
 11
719.0568276378695
 21
460.4819171865281
 31
0.0
  0
ARC
  5
134
330
2
100
AcDbEntity
  8
OUTLINE
  6
CONTINUOUS
 48
25.4
100
AcDbCircle
 10
712.2009034408696
 20
423.466104556028
 30
0.0
 40
44.86908963694745
100
AcDbArc
 50
160.5119711541998
 51
210.4645927562998
  0
ARC
  5
135
330
2
100
AcDbEntity
  8
OUTLINE
  6
CONTINUOUS
 48
25.4
100
AcDbCircle
 10
726.5384234888697
 20
418.4154647510281
 30
0.0
 40
60.09267892904905
100
AcDbArc
 50
139.5696827214995
 51
140.7568566763995
  0
ARC
  5
136
330
2
100
AcDbEntity
  8
OUTLINE
  6
CONTINUOUS
 48
25.4
100
AcDbCircle
 10
673.9375296513697
 20
400.9819171835279
 30
0.0
 40
0.4999999967458665
100
AcDbArc
 50
213.0376073472998
 51
269.9979288739999
  0
ARC
  5
137
330
2
100
AcDbEntity
  8
OUTLINE
  6
CONTINUOUS
 48
25.4
100
AcDbCircle
 10
717.9687133783698
 20
477.3713522625281
 30
0.0
 40
0.4979949884854875
100
AcDbArc
 50
356.9614244360999
 51
86.79274304859999
  0
ARC
  5
138
330
2
100
AcDbEntity
  8
OUTLINE
  6
CONTINUOUS
 48
25.4
100
AcDbCircle
 10
720.6343086508695
 20
400.9819171865281
 30
0.0
 40
0.5
100
AcDbArc
 50
270.0
 51
1.99999999999974
  0
ARC
  5
139
330
2
100
AcDbEntity
  8
OUTLINE
  6
CONTINUOUS
 48
25.4
100
AcDbCircle
 10
724.0459972853697
 20
419.5784235815279
 30
0.0
 40
57.3473320276621
100
AcDbArc
 50
142.7769797177995
 51
160.7535847928998
  0
LINE
  5
13A
330
2
100
AcDbEntity
  8
OUTLINE
  6
CONTINUOUS
 48
25.4
100
AcDbLine
 10
678.6526678533697
 20
454.6403037770279
 30
0.0
 11
678.5947377018697
 21
454.561091068528
 31
0.0
  0
LINE
  5
13B
330
2
100
AcDbEntity
  8
OUTLINE
  6
CONTINUOUS
 48
25.4
100
AcDbLine
 10
679.1971898078696
 20
455.384873875528
 30
0.0
 11
679.1186474133695
 21
455.277476335028
 31
0.0
  0
LINE
  5
13C
330
2
100
AcDbEntity
  8
OUTLINE
  6
CONTINUOUS
 48
25.4
100
AcDbLine
 10
679.0651805293697
 20
455.2043666240281
 30
0.0
 11
679.0040643868697
 21
455.1207974450278
 31
0.0
  0
ARC
  5
13D
330
2
100
AcDbEntity
  8
OUTLINE
  6
CONTINUOUS
 48
25.4
100
AcDbCircle
 10
683.2930983558697
 20
452.9419845460281
 30
0.0
 40
4.754750615710745
100
AcDbArc
 50
137.3280601071001
 51
145.4507761639004
  0
ARC
  5
13E
330
2
100
AcDbEntity
  8
OUTLINE
  6
CONTINUOUS
 48
25.4
100
AcDbCircle
 10
722.5010306908695
 20
422.9824410005279
 30
0.0
 40
54.00265059060025
100
AcDbArc
 50
124.1505683703001
 51
140.1310252625995
  0
LINE
  5
13F
330
2
100
AcDbEntity
  8
OUTLINE
  6
CONTINUOUS
 48
25.4
100
AcDbLine
 10
717.8280481218697
 20
477.8295250040279
 30
0.0
 11
715.7405904183697
 21
477.4361860390277
 31
0.0
  0
LINE
  5
140
330
2
100
AcDbEntity
  8
OUTLINE
  6
CONTINUOUS
 48
25.4
100
AcDbLine
 10
718.1717485093697
 20
462.3819171865281
 30
0.0
 11
718.9878591183697
 21
462.3819171865281
 31
0.0
  0
LINE
  5
141
330
2
100
AcDbEntity
  8
OUTLINE
  6
CONTINUOUS
 48
25.4
100
AcDbLine
 10
718.0266241863697
 20
460.8819171865278
 30
0.0
 11
718.9878591183697
 21
460.8819171865278
 31
0.0
  0
LINE
  5
142
330
2
100
AcDbEntity
  8
OUTLINE
  6
CONTINUOUS
 48
25.4
100
AcDbLine
 10
718.9878591183697
 20
460.8819171865278
 30
0.0
 11
718.9878591183697
 21
462.3819171865281
 31
0.0
  0
LINE
  5
143
330
2
100
AcDbEntity
  8
OUTLINE
  6
CONTINUOUS
 48
25.4
100
AcDbLine
 10
541.2196586443696
 20
604.8296066985279
 30
0.0
 11
526.7187340513697
 21
611.5914988865281
 31
0.0
  0
LINE
  5
144
330
2
100
AcDbEntity
  8
OUTLINE
  6
CONTINUOUS
 48
25.4
100
AcDbLine
 10
519.2383908188697
 20
595.5498510560279
 30
0.0
 11
533.7393154113697
 21
588.7879588680282
 31
0.0
  0
LINE
  5
145
330
2
100
AcDbEntity
  8
OUTLINE
  6
CONTINUOUS
 48
25.4
100
AcDbLine
 10
533.3406375968698
 20
588.642852010528
 30
0.0
 11
519.3834976763697
 21
595.1511732415277
 31
0.0
  0
LINE
  5
146
330
2
100
AcDbEntity
  8
OUTLINE
  6
CONTINUOUS
 48
25.4
100
AcDbLine
 10
519.2383908188697
 20
595.5498510560279
 30
0.0
 11
519.3834976763697
 21
595.1511732415277
 31
0.0
  0
LINE
  5
147
330
2
100
AcDbEntity
  8
OUTLINE
  6
CONTINUOUS
 48
25.4
100
AcDbLine
 10
533.3406375968698
 20
588.642852010528
 30
0.0
 11
533.7393154113697
 21
588.7879588680282
 31
0.0
  0
LINE
  5
148
330
2
100
AcDbEntity
  8
OUTLINE
  6
CONTINUOUS
 48
25.4
100
AcDbLine
 10
526.7187340513697
 20
611.5914988865281
 30
0.0
 11
519.2383908188697
 21
595.5498510560279
 31
0.0
  0
LINE
  5
149
330
2
100
AcDbEntity
  8
OUTLINE
  6
CONTINUOUS
 48
25.4
100
AcDbLine
 10
533.7393154113697
 20
588.7879588680282
 30
0.0
 11
541.2196586443696
 21
604.8296066985279
 31
0.0
  0
LINE
  5
14A
330
2
100
AcDbEntity
  8
OUTLINE
  6
CONTINUOUS
 48
25.4
100
AcDbLine
 10
541.2196586443696
 20
604.8296066985279
 30
0.0
 11
526.7187340513697
 21
611.5914988865281
 31
0.0
  0
LINE
  5
14B
330
2
100
AcDbEntity
  8
OUTLINE
  6
CONTINUOUS
 48
25.4
100
AcDbLine
 10
544.6006047383697
 20
612.080068995028
 30
0.0
 11
530.0996801453696
 21
618.8419611830282
 31
0.0
  0
LINE
  5
14C
330
2
100
AcDbEntity
  8
OUTLINE
  6
CONTINUOUS
 48
25.4
100
AcDbLine
 10
696.1520738073696
 20
578.4819171865279
 30
0.0
 11
712.1520738073696
 21
578.4819171865279
 31
0.0
  0
LINE
  5
14D
330
2
100
AcDbEntity
  8
OUTLINE
  6
CONTINUOUS
 48
25.4
100
AcDbLine
 10
693.2520738073697
 20
476.6290638330281
 30
0.0
 11
713.3328219033698
 21
476.6290638330281
 31
0.0
  0
LINE
  5
14E
330
2
100
AcDbEntity
  8
OUTLINE
  6
CONTINUOUS
 48
25.4
100
AcDbLine
 10
696.1520738073696
 20
506.9538062060281
 30
0.0
 11
712.1520738073696
 21
506.9538062060281
 31
0.0
  0
LINE
  5
14F
330
2
100
AcDbEntity
  8
OUTLINE
  6
CONTINUOUS
 48
25.4
100
AcDbLine
 10
695.9708238073696
 20
505.058509808028
 30
0.0
 11
712.3333238073696
 21
505.058509808028
 31
0.0
  0
LINE
  5
150
330
2
100
AcDbEntity
  8
OUTLINE
  6
CONTINUOUS
 48
25.4
100
AcDbLine
 10
530.0996801453696
 20
618.8419611830282
 30
0.0
 11
526.7187340513697
 21
611.5914988865281
 31
0.0
  0
LINE
  5
151
330
2
100
AcDbEntity
  8
OUTLINE
  6
CONTINUOUS
 48
25.4
100
AcDbLine
 10
541.2196586443696
 20
604.8296066985279
 30
0.0
 11
544.6006047383697
 21
612.080068995028
 31
0.0
  0
ARC
  5
152
330
2
100
AcDbEntity
  8
OUTLINE
  6
CONTINUOUS
 48
25.4
100
AcDbCircle
 10
616.6520738073695
 20
578.4819171865279
 30
0.0
 40
79.5
100
AcDbArc
 50
0.0
 51
155.0000000000002
  0
ARC
  5
153
330
2
100
AcDbEntity
  8
OUTLINE
  6
CONTINUOUS
 48
25.4
100
AcDbCircle
 10
616.6520738073695
 20
578.4819171865279
 30
0.0
 40
95.49999999999995
100
AcDbArc
 50
90.0
 51
155.0000000000002
  0
LINE
  5
154
330
2
100
AcDbEntity
  8
OUTLINE
  6
CONTINUOUS
 48
25.4
100
AcDbLine
 10
712.1520738073696
 20
506.9538062060281
 30
0.0
 11
712.1520738073696
 21
578.4819171865279
 31
0.0
  0
LINE
  5
155
330
2
100
AcDbEntity
  8
OUTLINE
  6
CONTINUOUS
 48
25.4
100
AcDbLine
 10
696.1520738073696
 20
578.4819171865279
 30
0.0
 11
696.1520738073696
 21
506.9538062060281
 31
0.0
  0
ARC
  5
156
330
2
100
AcDbEntity
  8
OUTLINE
  6
CONTINUOUS
 48
25.4
100
AcDbCircle
 10
565.0520738073696
 20
476.6290638330281
 30
0.0
 40
150.0
100
AcDbArc
 50
0.233188437200176
 51
10.92533579699995
  0
ARC
  5
157
330
2
100
AcDbEntity
  8
OUTLINE
  6
CONTINUOUS
 48
25.4
100
AcDbCircle
 10
843.2520738073696
 20
476.6290638330281
 30
0.0
 40
149.9999999999999
100
AcDbArc
 50
169.0746642029999
 51
180.0
  0
LINE
  5
158
330
2
100
AcDbEntity
  8
OUTLINE
  6
CONTINUOUS
 48
25.4
100
AcDbLine
 10
693.2520738073697
 20
476.6290638330281
 30
0.0
 11
693.2520738073697
 21
468.2343491090281
 31
0.0
  0
ARC
  5
159
330
2
100
AcDbEntity
  8
OUTLINE
  6
CONTINUOUS
 48
25.4
100
AcDbCircle
 10
686.1520738073697
 20
506.9538062060281
 30
0.0
 40
10.0
100
AcDbArc
 50
349.0746642030001
 51
0.0
  0
ARC
  5
15A
330
2
100
AcDbEntity
  8
OUTLINE
  6
CONTINUOUS
 48
25.4
100
AcDbCircle
 10
722.1520738073697
 20
506.9538062060281
 30
0.0
 40
10.0
100
AcDbArc
 50
180.0
 51
190.9253357969998
  0
ARC
  5
15B
330
2
100
AcDbEntity
  8
OUTLINE
  6
CONTINUOUS
 48
25.4
100
AcDbCircle
 10
616.6520738073695
 20
578.4819171865279
 30
0.0
 40
95.5
100
AcDbArc
 50
0.0
 51
90.0
  0
ARC
  5
15C
330
2
100
AcDbEntity
  8
OUTLINE
  6
CONTINUOUS
 48
25.4
100
AcDbCircle
 10
690.1520738073696
 20
423.4819171865281
 30
0.0
 40
14.5
100
AcDbArc
 50
0.0
 51
57.48593264930004
  0
ARC
  5
15D
330
2
100
AcDbEntity
  8
OUTLINE
  6
CONTINUOUS
 48
25.4
100
AcDbCircle
 10
690.1520738073696
 20
423.4819171865281
 30
0.0
 40
14.5
100
AcDbArc
 50
136.6701947416003
 51
0.0
  0
LINE
  5
15E
330
2
100
AcDbEntity
  8
OUTLINE
  6
CONTINUOUS
 48
25.4
100
AcDbLine
 10
678.0832914023696
 20
430.4498319570281
 30
0.0
 11
677.8105016003697
 21
430.607327223028
 31
0.0
  0
LINE
  5
15F
330
2
100
AcDbEntity
  8
OUTLINE
  6
CONTINUOUS
 48
25.4
100
AcDbLine
 10
677.8105016003697
 20
430.607327223028
 30
0.0
 11
677.7925059273695
 21
430.617717029528
 31
0.0
  0
ARC
  5
160
330
2
100
AcDbEntity
  8
OUTLINE
  6
CONTINUOUS
 48
25.4
100
AcDbCircle
 10
735.5579700738696
 20
395.3166721420281
 30
0.0
 40
67.6979513587749
100
AcDbArc
 50
140.8071571361004
 51
148.5704864472996
  0
ARC
  5
161
330
2
100
AcDbEntity
  8
OUTLINE
  6
CONTINUOUS
 48
25.4
100
AcDbCircle
 10
689.9670797603697
 20
425.5645975100281
 30
0.0
 40
12.2436285433991
100
AcDbArc
 50
44.50986747679958
 51
47.62129783399964
  0
ARC
  5
162
330
2
100
AcDbEntity
  8
OUTLINE
  6
CONTINUOUS
 48
25.4
100
AcDbCircle
 10
690.1520738073696
 20
423.4819171865281
 30
0.0
 40
11.71658245406528
100
AcDbArc
 50
149.9999999999999
 51
51.29591475569966
  0
ARC
  5
163
330
2
100
AcDbEntity
  8
OUTLINE
  6
CONTINUOUS
 48
25.4
100
AcDbCircle
 10
699.9655216058697
 20
435.8162853695279
 30
0.0
 40
4.045681406068402
100
AcDbArc
 50
144.6854195205999
 51
232.0661340691994
  0
ARC
  5
164
330
2
100
AcDbEntity
  8
OUTLINE
  6
CONTINUOUS
 48
25.4
100
AcDbCircle
 10
973.8816186853696
 20
224.477555351528
 30
0.0
 40
350.0106871211844
100
AcDbArc
 50
137.1022912906001
 51
142.3751878621
  0
SPLINE
  5
165
330
2
100
AcDbEntity
  8
OUTLINE
  6
CONTINUOUS
 48
25.4
100
AcDbSpline
210
0.0
220
0.0
230
1.0
 70
     8
 71
     3
 72
     8
 73
     4
 74
     0
 42
0.0000000001
 43
0.0000000001
 40
0.7742550112672891
 40
0.7742550112672891
 40
0.7742550112672891
 40
0.7742550112672891
 40
0.8134363990737664
 40
0.8134363990737664
 40
0.8134363990737664
 40
0.8134363990737664
 10
698.2358239353167
 20
434.6711842614999
 30
0.0
 10
698.2577528276562
 20
434.637501140937
 30
0.0
 10
698.2806025656937
 20
434.6042527914881
 30
0.0
 10
698.3043303572388
 20
434.5715202158551
 30
0.0
  0
SPLINE
  5
166
330
2
100
AcDbEntity
  8
OUTLINE
  6
CONTINUOUS
 48
25.4
100
AcDbSpline
210
0.0
220
0.0
230
1.0
 70
     8
 71
     3
 72
     8
 73
     4
 74
     0
 42
0.0000000001
 43
0.0000000001
 40
0.8134363990737664
 40
0.8134363990737664
 40
0.8134363990737664
 40
0.8134363990737664
 40
1.0
 40
1.0
 40
1.0
 40
1.0
 10
698.3043303572388
 20
434.5715202158551
 30
0.0
 10
698.4173110983642
 20
434.4156628682825
 30
0.0
 10
698.5501992688816
 20
434.2714992622983
 30
0.0
 10
698.6983752533762
 20
434.147774015174
 30
0.0
  0
LINE
  5
167
330
2
100
AcDbEntity
  8
OUTLINE
  6
CONTINUOUS
 48
25.4
100
AcDbLine
 10
678.3156993528696
 20
430.3156511645282
 30
0.0
 11
678.0832914023696
 21
430.4498319570281
 31
0.0
  0
ARC
  5
168
330
2
100
AcDbEntity
  8
OUTLINE
  6
CONTINUOUS
 48
25.4
100
AcDbCircle
 10
813.0732175373697
 20
336.4991295240281
 30
0.0
 40
164.1984434794453
100
AcDbArc
 50
125.9524619815999
 51
145.1548404188995
  0
ARC
  5
169
330
2
100
AcDbEntity
  8
OUTLINE
  6
CONTINUOUS
 48
25.4
100
AcDbCircle
 10
690.1520738073696
 20
423.4819171865281
 30
0.0
 40
13.66746795551516
100
AcDbArc
 50
149.9999999999999
 51
51.29561843830035
  0
LINE
  5
16A
330
2
100
AcDbEntity
  8
OUTLINE
  6
CONTINUOUS
 48
25.4
100
AcDbLine
 10
680.0052157568696
 20
429.3402084135282
 30
0.0
 11
678.3156982913697
 21
430.315651777028
 31
0.0
  0
LINE
  5
16B
330
2
100
AcDbEntity
  8
OUTLINE
  6
CONTINUOUS
 48
25.4
100
AcDbLine
 10
697.4784328998697
 20
432.625372050528
 30
0.0
 11
698.6983752533697
 21
434.1477740150279
 31
0.0
  0
SPLINE
  5
16C
330
2
100
AcDbEntity
  8
OUTLINE
  6
CONTINUOUS
 48
25.4
100
AcDbSpline
210
0.0
220
0.0
230
1.0
 70
     8
 71
     3
 72
    14
 73
    10
 74
     0
 42
0.0000000001
 43
0.0000000001
 40
0.0
 40
0.0
 40
0.0
 40
0.0
 40
0.25
 40
0.25
 40
0.5
 40
0.5
 40
0.75
 40
0.75
 40
0.8411270537841591
 40
0.8411270537841591
 40
0.8411270537841591
 40
0.8411270537841591
 10
696.6642839641757
 20
438.1549533818614
 30
0.0
 10
696.9129451598917
 20
437.9659480976719
 30
0.0
 10
697.1605154774822
 20
437.7751007974896
 30
0.0
 10
697.6008787180242
 20
437.4302673006416
 30
0.0
 10
697.7933217142564
 20
437.276555119704
 30
0.0
 10
698.0818358833372
 20
437.0392040815854
 30
0.0
 10
698.1776777935968
 20
436.9557538311321
 30
0.0
 10
698.2284967513243
 20
436.9020491106708
 30
0.0
 10
698.2342786604513
 20
436.8935693306639
 30
0.0
 10
698.2323770650666
 20
436.8909318538388
 30
0.0
  0
ARC
  5
16D
330
2
100
AcDbEntity
  8
OUTLINE
  6
CONTINUOUS
 48
25.4
100
AcDbCircle
 10
727.7059504263697
 20
469.472241076528
 30
0.0
 40
10.2539083527148
100
AcDbArc
 50
181.8746567268994
 51
191.5140717507999
  0
LINE
  5
16E
330
2
100
AcDbEntity
  8
OUTLINE
  6
CONTINUOUS
 48
25.4
100
AcDbLine
 10
717.4510534518698
 20
469.173015711528
 30
0.0
 11
717.4575301348697
 21
469.1368040010281
 31
0.0
  0
ARC
  5
16F
330
2
100
AcDbEntity
  8
OUTLINE
  6
CONTINUOUS
 48
25.4
100
AcDbCircle
 10
700.6854686768698
 20
463.0781199905278
 30
0.0
 40
17.4845294963906
100
AcDbArc
 50
352.4651964712006
 51
357.1871052660997
  0
SPLINE
  5
170
330
2
100
AcDbEntity
  8
OUTLINE
  6
CONTINUOUS
 48
25.4
100
AcDbSpline
210
0.0
220
0.0
230
1.0
 70
     8
 71
     3
 72
    21
 73
    17
 74
     0
 42
0.0000000001
 43
0.0000000001
 40
0.0
 40
0.0
 40
0.0
 40
0.0
 40
0.0398915069422837
 40
0.0812972546667048
 40
0.1243113574390046
 40
0.1690264798302786
 40
0.2155337077595943
 40
0.2639224703094211
 40
0.4049349911852394
 40
0.5205498583448591
 40
0.584961776392547
 40
0.6424384143773241
 40
0.7021854167715445
 40
0.7597713260499375
 40
0.8701297816638373
 40
1.0
 40
1.0
 40
1.0
 40
1.0
 10
717.9443701161232
 20
462.6779673258266
 30
0.0
 10
717.9426437593527
 20
462.6298426225615
 30
0.0
 10
717.9391255150757
 20
462.5317664515425
 30
0.0
 10
717.9341576383148
 20
462.3814820632786
 30
0.0
 10
717.9292734707006
 20
462.2258018929826
 30
0.0
 10
717.9244847052873
 20
462.0648938159545
 30
0.0
 10
717.9197596760142
 20
461.8990500820604
 30
0.0
 10
717.9121221904995
 20
461.6223008311979
 30
0.0
 10
717.9031260583656
 20
461.274626208316
 30
0.0
 10
717.8971936876393
 20
460.9391477930985
 30
0.0
 10
717.8975929551931
 20
460.7248528451099
 30
0.0
 10
717.9017105904663
 20
460.588226822113
 30
0.0
 10
717.9107841655236
 20
460.4954008525329
 30
0.0
 10
717.9297674183217
 20
460.4401801892395
 30
0.0
 10
717.9677757977417
 20
460.506829778756
 30
0.0
 10
718.0010420316651
 20
460.687648775703
 30
0.0
 10
718.0190261173763
 20
460.7854014803461
 30
0.0
  0
ARC
  5
171
330
2
100
AcDbEntity
  8
OUTLINE
  6
CONTINUOUS
 48
25.4
100
AcDbCircle
 10
693.3497927383697
 20
463.5788300030281
 30
0.0
 40
24.61107047576071
100
AcDbArc
 50
357.9022788737992
 51
8.992040683600443
  0
ARC
  5
172
330
2
100
AcDbEntity
  8
OUTLINE
  6
CONTINUOUS
 48
25.4
100
AcDbCircle
 10
810.9511891213696
 20
338.535155023028
 30
0.0
 40
159.3499471654641
100
AcDbArc
 50
126.0417462263997
 51
145.2604584427002
  0
ARC
  5
173
330
2
100
AcDbEntity
  8
OUTLINE
  6
CONTINUOUS
 48
25.4
100
AcDbCircle
 10
693.3728582708697
 20
463.6119399365278
 30
0.0
 40
24.11763437711586
100
AcDbArc
 50
357.8969104411
 51
8.997409116300477
  0
SPLINE
  5
174
330
2
100
AcDbEntity
  8
OUTLINE
  6
CONTINUOUS
 48
25.4
100
AcDbSpline
210
0.0
220
0.0
230
1.0
 70
     8
 71
     3
 72
    19
 73
    15
 74
     0
 42
0.0000000001
 43
0.0000000001
 40
0.2223497363468303
 40
0.2223497363468303
 40
0.2223497363468303
 40
0.2223497363468303
 40
0.2680113580590911
 40
0.3542420033807779
 40
0.4420460717536718
 40
0.5342369678240548
 40
0.5932473356188589
 40
0.6559678915836049
 40
0.7110742493687177
 40
0.7724903292310568
 40
0.8207450671279842
 40
0.8867981862834428
 40
0.9530878447256599
 40
1.0
 40
1.0
 40
1.0
 40
1.0
 10
717.7482340423213
 20
460.043059622138
 30
0.0
 10
717.7454058723822
 20
460.0398704032295
 30
0.0
 10
717.7350950096122
 20
460.0447716974121
 30
0.0
 10
717.7088962013502
 20
460.1248552804658
 30
0.0
 10
717.6682311408342
 20
460.3306106282458
 30
0.0
 10
717.6296157354013
 20
460.594663942496
 30
0.0
 10
717.5987911997216
 20
460.870670075087
 30
0.0
 10
717.5766088504878
 20
461.1185262787715
 30
0.0
 10
717.5585222084905
 20
461.3828985434255
 30
0.0
 10
717.5441260204142
 20
461.6340650282095
 30
0.0
 10
717.5312807954776
 20
461.9070524729611
 30
0.0
 10
717.5166029491866
 20
462.1910381505208
 30
0.0
 10
717.4984207349218
 20
462.474646578453
 30
0.0
 10
717.4813300036471
 20
462.6529780860662
 30
0.0
 10
717.4742474047651
 20
462.7268807480535
 30
0.0
  0
ARC
  5
175
330
2
100
AcDbEntity
  8
OUTLINE
  6
CONTINUOUS
 48
25.4
100
AcDbCircle
 10
834.2056087098697
 20
310.149759949528
 30
0.0
 40
198.0058939672705
100
AcDbArc
 50
126.4166512675999
 51
126.4840209074996
  0
ARC
  5
176
330
2
100
AcDbEntity
  8
OUTLINE
  6
CONTINUOUS
 48
25.4
100
AcDbCircle
 10
834.2056087098697
 20
310.149759949528
 30
0.0
 40
198.0058939672705
100
AcDbArc
 50
126.4840209074996
 51
139.7457948279003
  0
LINE
  5
177
330
2
100
AcDbEntity
  8
OUTLINE
  6
CONTINUOUS
 48
25.4
100
AcDbLine
 10
716.6700433538697
 20
469.4184917275281
 30
0.0
 11
716.6605130548697
 21
469.4788485620281
 31
0.0
  0
LINE
  5
178
330
2
100
AcDbEntity
  8
OUTLINE
  6
CONTINUOUS
 48
25.4
100
AcDbLine
 10
716.6605130548697
 20
469.4788485620281
 30
0.0
 11
716.6588594328697
 21
469.4893212025282
 31
0.0
  0
ARC
  5
179
330
2
100
AcDbEntity
  8
OUTLINE
  6
CONTINUOUS
 48
25.4
100
AcDbCircle
 10
740.1550718543697
 20
474.3779897405278
 30
0.0
 40
24.00298283621074
100
AcDbArc
 50
191.9243529440003
 51
196.9413627257999
  0
ELLIPSE
  5
17A
330
2
100
AcDbEntity
  8
OUTLINE
  6
CONTINUOUS
 48
25.4
100
AcDbEllipse
 10
716.9597720018698
 20
469.0900072880281
 30
0.0
 11
0.303120079935517
 21
-0.3976408239695917
 31
0.0
210
0.0
220
0.0
230
0.9999999999999998
 40
0.9979553270999998
 41
2.923237155559231
 42
3.136041499818761
  0
ELLIPSE
  5
17B
330
2
100
AcDbEntity
  8
OUTLINE
  6
CONTINUOUS
 48
25.4
100
AcDbEllipse
 10
716.9721744198697
 20
469.020674626028
 30
0.0
 11
0.4481339388653535
 21
-0.2217565724562109
 31
0.0
210
0.0
220
0.0
230
1.0
 40
0.9954045252999998
 41
0.6966318755464089
 42
2.678007155902915
  0
ELLIPSE
  5
17C
330
2
100
AcDbEntity
  8
OUTLINE
  6
CONTINUOUS
 48
25.4
100
AcDbEllipse
 10
717.2741477143699
 20
460.861749505028
 30
0.0
 11
-0.7399706705848335
 21
0.1222430313552528
 31
0.0
210
0.0
220
0.0
230
0.9999999999999998
 40
0.7331514876999999
 41
2.971888357258312
 42
3.225495837469837
  0
ELLIPSE
  5
17D
330
2
100
AcDbEntity
  8
OUTLINE
  6
CONTINUOUS
 48
25.4
100
AcDbEllipse
 10
717.1690216973699
 20
467.343570080528
 30
0.0
 11
0.4938588816223547
 21
0.078124292270318
 31
0.0
210
0.0
220
0.0
230
1.0
 40
0.071670437
 41
0.1240215890277484
 42
1.509399983395078
  0
ELLIPSE
  5
17E
330
2
100
AcDbEntity
  8
OUTLINE
  6
CONTINUOUS
 48
25.4
100
AcDbEllipse
 10
717.4492776123696
 20
462.691014693028
 30
0.0
 11
0.4996655775364803
 21
-0.0182841632328443
 31
0.0
210
0.0
220
0.0
230
1.0
 40
0.0735926507
 41
0.1381172370297481
 42
1.523495631397523
  0
ARC
  5
17F
330
2
100
AcDbEntity
  8
OUTLINE
  6
CONTINUOUS
 48
25.4
100
AcDbCircle
 10
699.8296875083696
 20
435.773122154528
 30
0.0
 40
1.938724493821466
100
AcDbArc
 50
144.9839565899003
 51
218.2225274380996
  0
ARC
  5
180
330
2
100
AcDbEntity
  8
OUTLINE
  6
CONTINUOUS
 48
25.4
100
AcDbCircle
 10
969.4792920938695
 20
228.136467665028
 30
0.0
 40
342.2717345957976
100
AcDbArc
 50
137.3442397614998
 51
142.4177839839001
  0
ARC
  5
181
330
2
100
AcDbEntity
  8
OUTLINE
  6
CONTINUOUS
 48
25.4
100
AcDbCircle
 10
693.1897449393698
 20
463.3303356815278
 30
0.0
 40
25.0
100
AcDbArc
 50
357.4637407111
 51
13.54722201790041
  0
ARC
  5
182
330
2
100
AcDbEntity
  8
OUTLINE
  6
CONTINUOUS
 48
25.4
100
AcDbCircle
 10
716.8591234938697
 20
469.3605461230281
 30
0.0
 40
0.213358124659783
100
AcDbArc
 50
120.8256851750002
 51
121.5250069689997
  0
ARC
  5
183
330
2
100
AcDbEntity
  8
OUTLINE
  6
CONTINUOUS
 48
25.4
100
AcDbCircle
 10
716.9895363983697
 20
469.0967139655279
 30
0.0
 40
0.5116646571443077
100
AcDbArc
 50
13.92177823229992
 51
127.8605978422001
  0
LINE
  5
184
330
2
100
AcDbEntity
  8
OUTLINE
  6
CONTINUOUS
 48
25.4
100
AcDbLine
 10
718.1522640023696
 20
462.1043238700278
 30
0.0
 11
718.1649312508697
 21
462.216727357028
 31
0.0
  0
ARC
  5
185
330
2
100
AcDbEntity
  8
OUTLINE
  6
CONTINUOUS
 48
25.4
100
AcDbCircle
 10
716.2756148488696
 20
460.9767749350281
 30
0.0
 40
1.74367409021496
100
AcDbArc
 50
327.6312150926993
 51
349.1825795004993
  0
POINT
  5
1AA
330
2
100
AcDbEntity
  8
0
  6
CONTINUOUS
 62
     5
100
AcDbPoint
 10
704.1520738073696
 20
400.4819171865281
 30
0.0
  0
ENDSEC
  0
SECTION
  2
OBJECTS
  0
DICTIONARY
  5
A
330
0
100
AcDbDictionary
  3
ACAD_COLOR
350
30
  3
ACAD_GROUP
350
2C
  3
ACAD_LAYOUT
350
F
  3
ACAD_MATERIAL
350
2F
  3
ACAD_MLINESTYLE
350
2D
  3
ACAD_PLOTSETTINGS
350
2E
  3
ACAD_PLOTSTYLENAME
350
9
  3
ACAD_TABLESTYLE
350
31
  3
ACDBVARIABLEDICTIONARY
350
187
  3
ACDBHEADERROUNDTRIPXREC
350
1BD
  0
DICTIONARY
  5
3
330
2
100
AcDbDictionary
280
     1
  3
ACAD_LAYOUTSELFREF
360
1DE
  3
ACAD_SORTENTS
360
186
  0
DICTIONARY
  5
12
330
11
100
AcDbDictionary
280
     1
  3
ACAD_LAYOUTSELFREF
360
1DF
  0
DICTIONARY
  5
30
102
{ACAD_REACTORS
330
A
102
}
330
A
100
AcDbDictionary
  0
DICTIONARY
  5
2C
102
{ACAD_REACTORS
330
A
102
}
330
A
100
AcDbDictionary
  0
DICTIONARY
  5
F
102
{ACAD_REACTORS
330
A
102
}
330
A
100
AcDbDictionary
  0
DICTIONARY
  5
2F
102
{ACAD_REACTORS
330
A
102
}
330
A
100
AcDbDictionary
  0
DICTIONARY
  5
2D
102
{ACAD_REACTORS
330
A
102
}
330
A
100
AcDbDictionary
  3
STANDARD
350
32
  0
DICTIONARY
  5
2E
102
{ACAD_REACTORS
330
A
102
}
330
A
100
AcDbDictionary
  0
ACDBDICTIONARYWDFLT
  5
9
102
{ACAD_REACTORS
330
A
102
}
330
A
100
AcDbDictionary
281
     1
  3
Normal
350
8
100
AcDbDictionaryWithDefault
340
8
1001
ACAD
1000
TREAT_AS_HARD
1070
     0
  0
DICTIONARY
  5
31
102
{ACAD_REACTORS
330
A
102
}
330
A
100
AcDbDictionary
  3
STANDARD
350
33
  0
DICTIONARY
  5
187
102
{ACAD_REACTORS
330
A
102
}
330
A
100
AcDbDictionary
  3
CTABLESTYLE
350
188
  3
DIMASSOC
350
19C
  3
HIDETEXT
350
19B
  3
PROJECTNAME
350
19D
  0
DICTIONARY
  5
1BD
102
{ACAD_REACTORS
330
A
102
}
330
A
100
AcDbDictionary
  3
TSTACKALIGN
350
1BE
  3
TSTACKSIZE
350
1BF
  3
HYPERLINKBASE
350
1C0
  3
STYLESHEET
350
1C1
  3
LAYOUTDICT
350
1C2
  3
PLOTSETDICT
350
1C3
  3
PLOTSTYLNAMDICT
350
1C4
  3
LWETCUNION
350
1C5
  3
INSUNITS
350
1C6
  3
CEPSNTYPE
350
1C7
  3
FINGERPRINTGUID
350
1C8
  3
VERSIONGUID
350
1C9
  3
PSVPSCALE
350
1CA
  3
DIMSTYLEDATA
350
1CB
  3
PUCSORTHOREF
350
1CC
  3
PUCSORTHOVIEW
350
1CD
  3
PUCSBASE
350
1CE
  3
PUCSORGTOP
350
1CF
  3
PUCSORGBOTTOM
350
1D0
  3
PUCSORGLEFT
350
1D1
  3
PUCSORGRIGHT
350
1D2
  3
PUCSORGFRONT
350
1D3
  3
PUCSORGBACK
350
1D4
  3
UCSORTHOREF
350
1D5
  3
UCSORTHOVIEW
350
1D6
  3
UCSBASE
350
1D7
  3
UCSORGTOP
350
1D8
  3
UCSORGBOTTOM
350
1D9
  3
UCSORGLEFT
350
1DA
  3
UCSORGRIGHT
350
1DB
  3
UCSORGFRONT
350
1DC
  3
UCSORGBACK
350
1DD
  0
XRECORD
  5
1DE
102
{ACAD_REACTORS
330
3
102
}
330
3
100
AcDbXrecord
340
2
  0
SORTENTSTABLE
  5
186
102
{ACAD_REACTORS
330
3
102
}
330
3
100
AcDbSortentsTable
330
2
  0
XRECORD
  5
1DF
102
{ACAD_REACTORS
330
12
102
}
330
12
100
AcDbXrecord
340
11
  0
MLINESTYLE
  5
32
102
{ACAD_REACTORS
330
2D
102
}
330
2D
100
AcDbMlineStyle
  2
STANDARD
 70
     0
  3

 62
   256
 51
90.0
 52
90.0
 71
     2
 49
0.5
 62
   256
  6
BYLAYER
 49
-0.5
 62
   256
  6
BYLAYER
  0
ACDBPLACEHOLDER
  5
8
102
{ACAD_REACTORS
330
9
102
}
330
9
100
AcDbPlaceHolder
280
     0
  0
ACAD_PROXY_OBJECT
  5
33
102
{ACAD_REACTORS
330
31
102
}
330
31
100
AcDbProxyObject
 90
      499
 91
      506
 93
     1841
310
4214DD185B99185C9928B81E85EB51B8AE3F2E07A17AD46E2B8FC02B5E8DC0F42B1CFD028000000C1008070000C3001FDFF8000000C1003FBFF000000182007F7FE00000030400FEFFC00000060801FDFF8000000C1003FBFF00000018200000000000000681FA0B0000001820100E000186003FBFF000000182007F7FE000
310
00030400FEFFC00000060801FDFF8000000C1003FBFF000000182007F7FE000000304000AD7A3703D0AC73F4160000003040201C00030C007F7FE00000030400FEFFC00000060801FDFF8000000C1003FBFF000000182007F7FE00000030400FEFFC000000608000
340
19
340
19
340
19
 94
        0
1001
ACAD
1000
AcadProxyRoundTripData
1071
      504
1071
   393239
1070
     0
  0
DICTIONARYVAR
  5
188
102
{ACAD_REACTORS
330
187
102
}
330
187
100
DictionaryVariables
280
     0
  1
STANDARD
  0
DICTIONARYVAR
  5
19C
102
{ACAD_REACTORS
330
187
102
}
330
187
100
DictionaryVariables
280
     0
  1
1
  0
DICTIONARYVAR
  5
19B
102
{ACAD_REACTORS
330
187
102
}
330
187
100
DictionaryVariables
280
     0
  1
1
  0
DICTIONARYVAR
  5
19D
102
{ACAD_REACTORS
330
187
102
}
330
187
100
DictionaryVariables
280
     0
  1

  0
XRECORD
  5
1BE
102
{ACAD_REACTORS
330
1BD
102
}
330
1BD
100
AcDbXrecord
 90
        1
  0
XRECORD
  5
1BF
102
{ACAD_REACTORS
330
1BD
102
}
330
1BD
100
AcDbXrecord
 90
       70
  0
XRECORD
  5
1C0
102
{ACAD_REACTORS
330
1BD
102
}
330
1BD
100
AcDbXrecord
  1

  0
XRECORD
  5
1C1
102
{ACAD_REACTORS
330
1BD
102
}
330
1BD
100
AcDbXrecord
  1

  0
XRECORD
  5
1C2
102
{ACAD_REACTORS
330
1BD
102
}
330
1BD
100
AcDbXrecord
340
F
  0
XRECORD
  5
1C3
102
{ACAD_REACTORS
330
1BD
102
}
330
1BD
100
AcDbXrecord
340
2E
  0
XRECORD
  5
1C4
102
{ACAD_REACTORS
330
1BD
102
}
330
1BD
100
AcDbXrecord
340
9
  0
XRECORD
  5
1C5
102
{ACAD_REACTORS
330
1BD
102
}
330
1BD
100
AcDbXrecord
 90
    10781
  0
XRECORD
  5
1C6
102
{ACAD_REACTORS
330
1BD
102
}
330
1BD
100
AcDbXrecord
 90
        0
  0
XRECORD
  5
1C7
102
{ACAD_REACTORS
330
1BD
102
}
330
1BD
100
AcDbXrecord
 90
        0
  0
XRECORD
  5
1C8
102
{ACAD_REACTORS
330
1BD
102
}
330
1BD
100
AcDbXrecord
  1
{305E3866-699D-4308-A30E-64DFC7860966}
  0
XRECORD
  5
1C9
102
{ACAD_REACTORS
330
1BD
102
}
330
1BD
100
AcDbXrecord
  1
{8AD7FDD0-B537-427F-9F28-19A966DEF82A}
  0
XRECORD
  5
1CA
102
{ACAD_REACTORS
330
1BD
102
}
330
1BD
100
AcDbXrecord
 40
0.0
  0
XRECORD
  5
1CB
102
{ACAD_REACTORS
330
1BD
102
}
330
1BD
100
AcDbXrecord
1000
DSTYLE
1002
{
1070
    79
 70
     2
1070
   179
 70
     1
1070
   341
340
25
1070
   342
340
25
1002
}
  0
XRECORD
  5
1CC
102
{ACAD_REACTORS
330
1BD
102
}
330
1BD
100
AcDbXrecord
340
0
  0
XRECORD
  5
1CD
102
{ACAD_REACTORS
330
1BD
102
}
330
1BD
100
AcDbXrecord
 70
     0
  0
XRECORD
  5
1CE
102
{ACAD_REACTORS
330
1BD
102
}
330
1BD
100
AcDbXrecord
340
0
  0
XRECORD
  5
1CF
102
{ACAD_REACTORS
330
1BD
102
}
330
1BD
100
AcDbXrecord
 10
0.0
 20
0.0
 30
0.0
  0
XRECORD
  5
1D0
102
{ACAD_REACTORS
330
1BD
102
}
330
1BD
100
AcDbXrecord
 10
0.0
 20
0.0
 30
0.0
  0
XRECORD
  5
1D1
102
{ACAD_REACTORS
330
1BD
102
}
330
1BD
100
AcDbXrecord
 10
0.0
 20
0.0
 30
0.0
  0
XRECORD
  5
1D2
102
{ACAD_REACTORS
330
1BD
102
}
330
1BD
100
AcDbXrecord
 10
0.0
 20
0.0
 30
0.0
  0
XRECORD
  5
1D3
102
{ACAD_REACTORS
330
1BD
102
}
330
1BD
100
AcDbXrecord
 10
0.0
 20
0.0
 30
0.0
  0
XRECORD
  5
1D4
102
{ACAD_REACTORS
330
1BD
102
}
330
1BD
100
AcDbXrecord
 10
0.0
 20
0.0
 30
0.0
  0
XRECORD
  5
1D5
102
{ACAD_REACTORS
330
1BD
102
}
330
1BD
100
AcDbXrecord
340
0
  0
XRECORD
  5
1D6
102
{ACAD_REACTORS
330
1BD
102
}
330
1BD
100
AcDbXrecord
 70
     0
  0
XRECORD
  5
1D7
102
{ACAD_REACTORS
330
1BD
102
}
330
1BD
100
AcDbXrecord
340
0
  0
XRECORD
  5
1D8
102
{ACAD_REACTORS
330
1BD
102
}
330
1BD
100
AcDbXrecord
 10
0.0
 20
0.0
 30
0.0
  0
XRECORD
  5
1D9
102
{ACAD_REACTORS
330
1BD
102
}
330
1BD
100
AcDbXrecord
 10
0.0
 20
0.0
 30
0.0
  0
XRECORD
  5
1DA
102
{ACAD_REACTORS
330
1BD
102
}
330
1BD
100
AcDbXrecord
 10
0.0
 20
0.0
 30
0.0
  0
XRECORD
  5
1DB
102
{ACAD_REACTORS
330
1BD
102
}
330
1BD
100
AcDbXrecord
 10
0.0
 20
0.0
 30
0.0
  0
XRECORD
  5
1DC
102
{ACAD_REACTORS
330
1BD
102
}
330
1BD
100
AcDbXrecord
 10
0.0
 20
0.0
 30
0.0
  0
XRECORD
  5
1DD
102
{ACAD_REACTORS
330
1BD
102
}
330
1BD
100
AcDbXrecord
 10
0.0
 20
0.0
 30
0.0
  0
ENDSEC
  0
EOF
