  0
SECTION
  2
HEADER
  9
$ACADVER
  1
AC1014
  9
$ACADMAINTVER
 70
     9
  9
$DWGCODEPAGE
  3
ANSI_932
  9
$INSBASE
 10
703.9455080649332
 20
770.7832199189846
 30
0.0
  9
$EXTMIN
 10
519.1341329348746
 20
719.5598888177389
 30
-0.00000001
  9
$EXTMAX
 10
725.2775205905893
 20
799.776874643004
 30
0.00000001
  9
$LIMMIN
 10
36.0
 20
25.5
  9
$LIMMAX
 10
1224.0
 20
865.4999999999999
  9
$ORTHOMODE
 70
     1
  9
$REGENMODE
 70
     1
  9
$FILLMODE
 70
     1
  9
$QTEXTMODE
 70
     0
  9
$MIRRTEXT
 70
     0
  9
$DRAGMODE
 70
     2
  9
$LTSCALE
 40
2.0
  9
$OSMODE
 70
   513
  9
$ATTMODE
 70
     1
  9
$TEXTSIZE
 40
0.2
  9
$TRACEWID
 40
0.05
  9
$TEXTSTYLE
  7
STANDARD
  9
$CLAYER
  8
0
  9
$CELTYPE
  6
CONTINUOUS
  9
$CECOLOR
 62
   256
  9
$CELTSCALE
 40
1.0
  9
$DELOBJ
 70
     1
  9
$DISPSILH
 70
     0
  9
$DIMSCALE
 40
3.0
  9
$DIMASZ
 40
2.0
  9
$DIMEXO
 40
2.0
  9
$DIMDLI
 40
7.0
  9
$DIMRND
 40
0.0
  9
$DIMDLE
 40
0.0
  9
$DIMEXE
 40
0.5
  9
$DIMTP
 40
0.0
  9
$DIMTM
 40
0.0
  9
$DIMTXT
 40
2.0
  9
$DIMCEN
 40
0.09
  9
$DIMTSZ
 40
0.0
  9
$DIMTOL
 70
     0
  9
$DIMLIM
 70
     0
  9
$DIMTIH
 70
     0
  9
$DIMTOH
 70
     0
  9
$DIMSE1
 70
     0
  9
$DIMSE2
 70
     0
  9
$DIMTAD
 70
     1
  9
$DIMZIN
 70
     8
  9
$DIMBLK
  1
OPEN
  9
$DIMASO
 70
     1
  9
$DIMSHO
 70
     1
  9
$DIMPOST
  1

  9
$DIMAPOST
  1

  9
$DIMALT
 70
     0
  9
$DIMALTD
 70
     2
  9
$DIMALTF
 40
0.03937
  9
$DIMLFAC
 40
1.0
  9
$DIMTOFL
 70
     1
  9
$DIMTVP
 40
0.0
  9
$DIMTIX
 70
     0
  9
$DIMSOXD
 70
     0
  9
$DIMSAH
 70
     0
  9
$DIMBLK1
  1

  9
$DIMBLK2
  1

  9
$DIMSTYLE
  2
G1
  9
$DIMCLRD
 70
     0
  9
$DIMCLRE
 70
     0
  9
$DIMCLRT
 70
     7
  9
$DIMTFAC
 40
1.0
  9
$DIMGAP
 40
0.8
  9
$DIMJUST
 70
     0
  9
$DIMSD1
 70
     0
  9
$DIMSD2
 70
     0
  9
$DIMTOLJ
 70
     1
  9
$DIMTZIN
 70
     0
  9
$DIMALTZ
 70
     0
  9
$DIMALTTZ
 70
     0
  9
$DIMFIT
 70
     3
  9
$DIMUPT
 70
     0
  9
$DIMUNIT
 70
     2
  9
$DIMDEC
 70
     2
  9
$DIMTDEC
 70
     2
  9
$DIMALTU
 70
     2
  9
$DIMALTTD
 70
     2
  9
$DIMTXSTY
  7
STANDARD
  9
$DIMAUNIT
 70
     0
  9
$LUNITS
 70
     2
  9
$LUPREC
 70
     4
  9
$SKETCHINC
 40
0.1
  9
$FILLETRAD
 40
5.0
  9
$AUNITS
 70
     0
  9
$AUPREC
 70
     0
  9
$MENU
  1
.
  9
$ELEVATION
 40
0.0
  9
$PELEVATION
 40
0.0
  9
$THICKNESS
 40
0.0
  9
$LIMCHECK
 70
     0
  9
$BLIPMODE
 70
     0
  9
$CHAMFERA
 40
0.0
  9
$CHAMFERB
 40
0.0
  9
$CHAMFERC
 40
0.0
  9
$CHAMFERD
 40
0.0
  9
$SKPOLY
 70
     0
  9
$TDCREATE
 40
2452110.000000000
  9
$TDUPDATE
 40
2453944.014488021
  9
$TDINDWG
 40
0.6232046296
  9
$TDUSRTIMER
 40
0.6232044444
  9
$USRTIMER
 70
     1
  9
$ANGBASE
 50
0.0
  9
$ANGDIR
 70
     0
  9
$PDMODE
 70
     3
  9
$PDSIZE
 40
0.0
  9
$PLINEWID
 40
0.0
  9
$COORDS
 70
     1
  9
$SPLFRAME
 70
     0
  9
$SPLINETYPE
 70
     6
  9
$SPLINESEGS
 70
     8
  9
$ATTDIA
 70
     0
  9
$ATTREQ
 70
     1
  9
$HANDLING
 70
 10241
  9
$HANDSEED
  5
11C
  9
$SURFTAB1
 70
     6
  9
$SURFTAB2
 70
     6
  9
$SURFTYPE
 70
     6
  9
$SURFU
 70
     6
  9
$SURFV
 70
     6
  9
$UCSNAME
  2

  9
$UCSORG
 10
0.0
 20
0.0
 30
0.0
  9
$UCSXDIR
 10
1.0
 20
0.0
 30
0.0
  9
$UCSYDIR
 10
0.0
 20
1.0
 30
0.0
  9
$PUCSNAME
  2

  9
$PUCSORG
 10
0.0
 20
0.0
 30
0.0
  9
$PUCSXDIR
 10
1.0
 20
0.0
 30
0.0
  9
$PUCSYDIR
 10
0.0
 20
1.0
 30
0.0
  9
$USERI1
 70
     0
  9
$USERI2
 70
     0
  9
$USERI3
 70
     0
  9
$USERI4
 70
     0
  9
$USERI5
 70
     0
  9
$USERR1
 40
0.0
  9
$USERR2
 40
0.0
  9
$USERR3
 40
0.0
  9
$USERR4
 40
0.0
  9
$USERR5
 40
0.0
  9
$WORLDVIEW
 70
     1
  9
$SHADEDGE
 70
     3
  9
$SHADEDIF
 70
    70
  9
$TILEMODE
 70
     1
  9
$MAXACTVP
 70
    48
  9
$PINSBASE
 10
0.0
 20
0.0
 30
0.0
  9
$PLIMCHECK
 70
     0
  9
$PEXTMIN
 10
1.000000000000000E+20
 20
1.000000000000000E+20
 30
1.000000000000000E+20
  9
$PEXTMAX
 10
-1.000000000000000E+20
 20
-1.000000000000000E+20
 30
-1.000000000000000E+20
  9
$PLIMMIN
 10
0.0
 20
0.0
  9
$PLIMMAX
 10
12.0
 20
9.0
  9
$UNITMODE
 70
     0
  9
$VISRETAIN
 70
     1
  9
$PLINEGEN
 70
     0
  9
$PSLTSCALE
 70
     1
  9
$TREEDEPTH
 70
  3020
  9
$PICKSTYLE
 70
     1
  9
$CMLSTYLE
  2
STANDARD
  9
$CMLJUST
 70
     0
  9
$CMLSCALE
 40
1.0
  9
$PROXYGRAPHICS
 70
     1
  9
$MEASUREMENT
 70
     0
  0
ENDSEC
  0
SECTION
  2
CLASSES
  0
CLASS
  1
ACDBDICTIONARYWDFLT
  2
AcDbDictionaryWithDefault
  3
AutoCAD 2000
 90
        0
280
     0
281
     0
  0
CLASS
  1
ACDBPLACEHOLDER
  2
AcDbPlaceHolder
  3
AutoCAD 2000
 90
        0
280
     0
281
     0
  0
CLASS
  1
LAYOUT
  2
AcDbLayout
  3
AutoCAD 2000
 90
        0
280
     0
281
     0
  0
CLASS
  1
DICTIONARYVAR
  2
AcDbDictionaryVar
  3
AutoCAD 2000
 90
        0
280
     0
281
     0
  0
CLASS
  1
TABLESTYLE
  2
AcDbTableStyle
  3
ObjectDBX Classes
 90
     2047
280
     0
281
     0
  0
CLASS
  1
SORTENTSTABLE
  2
AcDbSortentsTable
  3
AutoCAD 2000
 90
        0
280
     0
281
     0
  0
CLASS
  1
ACAD_PROXY_OBJECT_WRAPPER
  2
AcDbProxyObjectWrapper
  3
AutoCAD 2000
 90
        0
280
     0
281
     0
  0
CLASS
  1
LONG_TRANSACTION
  2
AcDbLongTransaction
  3
AutoCAD 2000
 90
        0
280
     0
281
     0
  0
CLASS
  1
LWPOLYLINE
  2
AcDbPolyline
  3
AutoCAD 2000
 90
        0
280
     0
281
     1
  0
CLASS
  1
HATCH
  2
AcDbHatch
  3
AutoCAD 2000
 90
        0
280
     0
281
     1
  0
CLASS
  1
XRECORD
  2
AcDbXrecord
  3
AutoCAD 2000
 90
        0
280
     0
281
     0
  0
CLASS
  1
LONG_TRANSACTION
  2
AcDbLongTransaction
  3
AutoCAD 2000
 90
        0
280
     0
281
     0
  0
CLASS
  1
LWPOLYLINE
  2
AcDbPolyline
  3
AutoCAD 2000
 90
        0
280
     0
281
     1
  0
CLASS
  1
HATCH
  2
AcDbHatch
  3
AutoCAD 2000
 90
        0
280
     0
281
     1
  0
CLASS
  1
XRECORD
  2
AcDbXrecord
  3
AutoCAD 2000
 90
        0
280
     0
281
     0
  0
ENDSEC
  0
SECTION
  2
TABLES
  0
TABLE
  2
VPORT
  5
20
330
0
100
AcDbSymbolTable
 70
     2
  0
VPORT
  5
F8
330
20
100
AcDbSymbolTableRecord
100
AcDbViewportTableRecord
  2
*ACTIVE
 70
     0
 10
0.0
 20
0.0
 11
1.0
 21
1.0
 12
623.2273195483193
 22
757.8596214600369
 13
0.0
 23
0.0
 14
1.0
 24
1.0
 15
0.0
 25
0.0
 16
0.0
 26
0.0
 36
1.0
 17
0.0
 27
0.0
 37
0.0
 40
108.3299186519682
 41
1.933867735470941
 42
50.0
 43
0.0
 44
0.0
 50
0.0
 51
0.0
 71
     0
 72
   100
 73
     1
 74
     1
 75
     0
 76
     0
 77
     0
 78
     0
  0
ENDTAB
  0
TABLE
  2
LTYPE
  5
1B
330
0
100
AcDbSymbolTable
 70
     1
  0
LTYPE
  5
1C
330
1B
100
AcDbSymbolTableRecord
100
AcDbLinetypeTableRecord
  2
BYBLOCK
 70
     0
  3

 72
    65
 73
     0
 40
0.0
  0
LTYPE
  5
1D
330
1B
100
AcDbSymbolTableRecord
100
AcDbLinetypeTableRecord
  2
BYLAYER
 70
     0
  3

 72
    65
 73
     0
 40
0.0
  0
LTYPE
  5
C
330
1B
100
AcDbSymbolTableRecord
100
AcDbLinetypeTableRecord
  2
CONTINUOUS
 70
     0
  3
Solid line
 72
    65
 73
     0
 40
0.0
  0
ENDTAB
  0
TABLE
  2
LAYER
  5
17
330
0
100
AcDbSymbolTable
 70
     2
  0
LAYER
  5
7
330
17
100
AcDbSymbolTableRecord
100
AcDbLayerTableRecord
  2
0
 70
     0
 62
     7
  6
CONTINUOUS
  0
LAYER
  5
35
330
17
100
AcDbSymbolTableRecord
100
AcDbLayerTableRecord
  2
OUTLINE
 70
     0
 62
     7
  6
CONTINUOUS
  0
ENDTAB
  0
TABLE
  2
STYLE
  5
18
330
0
100
AcDbSymbolTable
 70
     1
  0
STYLE
  5
19
330
18
100
AcDbSymbolTableRecord
100
AcDbTextStyleTableRecord
  2
STANDARD
 70
     0
 40
0.0
 41
1.0
 50
0.0
 71
     0
 42
0.2
  3
romans.shx
  4
bigfont.shx
  0
ENDTAB
  0
TABLE
  2
VIEW
  5
1E
330
0
100
AcDbSymbolTable
 70
     0
  0
ENDTAB
  0
TABLE
  2
UCS
  5
1F
330
0
100
AcDbSymbolTable
 70
     0
  0
ENDTAB
  0
TABLE
  2
APPID
  5
22
330
0
100
AcDbSymbolTable
 70
     2
  0
APPID
  5
B
330
22
100
AcDbSymbolTableRecord
100
AcDbRegAppTableRecord
  2
ACAD
 70
     0
  0
APPID
  5
10
330
22
100
AcDbSymbolTableRecord
100
AcDbRegAppTableRecord
  2
ACAD_PSEXT
 70
     0
  0
ENDTAB
  0
TABLE
  2
DIMSTYLE
  5
23
330
0
100
AcDbSymbolTable
 70
     1
  0
DIMSTYLE
105
24
330
23
100
AcDbSymbolTableRecord
100
AcDbDimStyleTableRecord
  2
G1
 70
     0
  3

  4

  5
OPEN
  6

  7

 40
3.0
 41
2.0
 42
2.0
 43
7.0
 44
0.5
 45
0.0
 46
0.0
 47
0.0
 48
0.0
140
2.0
141
0.09
142
0.0
143
0.03937
144
1.0
145
0.0
146
1.0
147
0.8
 71
     0
 72
     0
 73
     0
 74
     0
 75
     0
 76
     0
 77
     1
 78
     8
170
     0
171
     2
172
     1
173
     0
174
     0
175
     0
176
     0
177
     0
178
     7
270
     2
271
     2
272
     2
273
     2
274
     2
340
19
275
     0
280
     0
281
     0
282
     0
283
     1
284
     0
285
     0
286
     0
287
     3
288
     0
  0
ENDTAB
  0
TABLE
  2
BLOCK_RECORD
  5
1
330
0
100
AcDbSymbolTable
 70
     1
  0
BLOCK_RECORD
  5
2
102
{ACAD_XDICTIONARY
360
3
102
}
330
1
100
AcDbSymbolTableRecord
100
AcDbBlockTableRecord
  2
*MODEL_SPACE
  0
BLOCK_RECORD
  5
11
102
{ACAD_XDICTIONARY
360
12
102
}
330
1
100
AcDbSymbolTableRecord
100
AcDbBlockTableRecord
  2
*PAPER_SPACE
  0
BLOCK_RECORD
  5
25
330
1
100
AcDbSymbolTableRecord
100
AcDbBlockTableRecord
  2
_OPEN
  0
ENDTAB
  0
ENDSEC
  0
SECTION
  2
BLOCKS
  0
BLOCK
  5
6
330
2
100
AcDbEntity
  8
0
100
AcDbBlockBegin
  2
*MODEL_SPACE
 70
     0
 10
0.0
 20
0.0
 30
0.0
  3
*MODEL_SPACE
  1

  0
ENDBLK
  5
D
330
2
100
AcDbEntity
  8
0
100
AcDbBlockEnd
  0
BLOCK
  5
14
330
11
100
AcDbEntity
 67
     1
  8
0
100
AcDbBlockBegin
  2
*PAPER_SPACE
 70
     0
 10
0.0
 20
0.0
 30
0.0
  3
*PAPER_SPACE
  1

  0
ENDBLK
  5
15
330
11
100
AcDbEntity
 67
     1
  8
0
100
AcDbBlockEnd
  0
BLOCK
  5
26
330
25
100
AcDbEntity
  8
0
100
AcDbBlockBegin
  2
_OPEN
 70
     0
 10
0.0
 20
0.0
 30
0.0
  3
_OPEN
  1

  0
LINE
  5
27
330
25
100
AcDbEntity
  8
0
 62
     0
100
AcDbLine
 10
-0.9659259999999999
 20
0.258819
 30
0.0
 11
0.0
 21
0.0
 31
0.0
  0
LINE
  5
28
330
25
100
AcDbEntity
  8
0
 62
     0
100
AcDbLine
 10
0.0
 20
0.0
 30
0.0
 11
-0.9659259999999999
 21
-0.258819
 31
0.0
  0
LINE
  5
29
330
25
100
AcDbEntity
  8
0
 62
     0
100
AcDbLine
 10
0.0
 20
0.0
 30
0.0
 11
-1.0
 21
0.0
 31
0.0
  0
ENDBLK
  5
2A
330
25
100
AcDbEntity
  8
0
100
AcDbBlockEnd
  0
ENDSEC
  0
SECTION
  2
ENTITIES
  0
LINE
  5
34
330
2
100
AcDbEntity
  8
OUTLINE
  6
CONTINUOUS
100
AcDbLine
 10
695.1705449832843
 20
795.7679905943852
 30
0.0
 11
678.7797472577231
 21
795.1956113253245
 31
0.0
  0
ARC
  5
36
330
2
100
AcDbEntity
  8
OUTLINE
  6
CONTINUOUS
100
AcDbCircle
 10
696.0430324006343
 20
770.7832199189846
 30
0.0
 40
25.00000000020015
100
AcDbArc
 50
289.8918579303006
 51
92.0000000000037
  0
ARC
  5
37
330
2
100
AcDbEntity
  8
OUTLINE
  6
CONTINUOUS
100
AcDbCircle
 10
736.2275879765502
 20
770.7309096448555
 30
0.0
 40
68.98633045637821
100
AcDbArc
 50
160.4831708023009
 51
173.2927086960029
  0
ARC
  5
38
330
2
100
AcDbEntity
  8
OUTLINE
  6
CONTINUOUS
100
AcDbCircle
 10
736.2275879765502
 20
770.7309096448555
 30
0.0
 40
68.98633045637821
100
AcDbArc
 50
186.6194387356985
 51
199.5301503001033
  0
SPLINE
  5
39
330
2
100
AcDbEntity
  8
OUTLINE
  6
CONTINUOUS
100
AcDbSpline
210
0.0
220
0.0
230
1.0
 70
     8
 71
     3
 72
    14
 73
    10
 74
     0
 42
0.0000000001
 43
0.0000000001
 40
0.0
 40
0.0
 40
0.0
 40
0.0
 40
0.2667137042242451
 40
0.2667137042242451
 40
0.5334274084484903
 40
0.5334274084484903
 40
0.8001411126727351
 40
0.8001411126727351
 40
1.0
 40
1.0
 40
1.0
 40
1.0
 10
695.2157981771968
 20
747.094331170703
 30
0.0
 10
696.7547954781356
 20
747.0218789815763
 30
0.0
 10
698.1730056022777
 20
747.0945536123227
 30
0.0
 10
700.7728522220977
 20
747.4054746423369
 30
0.0
 10
701.8976180856571
 20
747.6373460266752
 30
0.0
 10
703.7797381630731
 20
748.1007333599072
 30
0.0
 10
704.5084681748767
 20
748.3241987232734
 30
0.0
 10
705.3781370971068
 20
748.5726925234846
 30
0.0
 10
705.6137471446951
 20
748.6298002921832
 30
0.0
 10
705.7060283118658
 20
748.6248566535022
 30
0.0
  0
SPLINE
  5
3A
330
2
100
AcDbEntity
  8
OUTLINE
  6
CONTINUOUS
100
AcDbSpline
210
0.0
220
0.0
230
1.0
 70
     8
 71
     3
 72
    10
 73
     6
 74
     0
 42
0.0000000001
 43
0.0000000001
 40
0.0
 40
0.0
 40
0.0
 40
0.0
 40
0.5271192882498016
 40
0.5271192882498016
 40
1.0
 40
1.0
 40
1.0
 40
1.0
 10
705.7060283118658
 20
748.6248566535022
 30
0.0
 10
705.7368972945607
 20
748.6232029564201
 30
0.0
 10
705.7517282042746
 20
748.6146058924655
 30
0.0
 10
705.7489828066801
 20
748.5842211549194
 30
0.0
 10
705.7345074214951
 20
748.5638646258506
 30
0.0
 10
705.7071397105438
 20
748.538045983847
 30
0.0
  0
SPLINE
  5
3B
330
2
100
AcDbEntity
  8
OUTLINE
  6
CONTINUOUS
100
AcDbSpline
210
0.0
220
0.0
230
1.0
 70
     8
 71
     3
 72
    10
 73
     6
 74
     0
 42
0.0000000001
 43
0.0000000001
 40
0.0
 40
0.0
 40
0.0
 40
0.0
 40
0.7564430107074675
 40
0.7564430107074675
 40
1.0
 40
1.0
 40
1.0
 40
1.0
 10
705.7071397105438
 20
748.538045983847
 30
0.0
 10
705.6128024245372
 20
748.4490483830136
 30
0.0
 10
705.3652784324182
 20
748.2951499175842
 30
0.0
 10
704.8509694952772
 20
748.0343858293042
 30
0.0
 10
704.711062263042
 20
747.96653993503
 30
0.0
 10
704.55712403795
 20
747.8955975885705
 30
0.0
  0
ARC
  5
3C
330
2
100
AcDbEntity
  8
OUTLINE
  6
CONTINUOUS
100
AcDbCircle
 10
703.8608064722917
 20
770.7830826701828
 30
0.0
 40
11.80096030017992
100
AcDbArc
 50
270.0
 51
137.1960237431037
  0
ARC
  5
3D
330
2
100
AcDbEntity
  8
OUTLINE
  6
CONTINUOUS
100
AcDbCircle
 10
703.8608064722917
 20
770.7830826701828
 30
0.0
 40
11.80096030017992
100
AcDbArc
 50
222.8294032402025
 51
270.0
  0
ARC
  5
3E
330
2
100
AcDbEntity
  8
OUTLINE
  6
CONTINUOUS
100
AcDbCircle
 10
704.0488189009453
 20
770.7832199189846
 30
0.0
 40
11.20810110043545
100
AcDbArc
 50
270.0
 51
134.415308597184
  0
ARC
  5
3F
330
2
100
AcDbEntity
  8
OUTLINE
  6
CONTINUOUS
100
AcDbCircle
 10
704.0488189009453
 20
770.7832199189846
 30
0.0
 40
11.20810110043545
100
AcDbArc
 50
225.5846914028071
 51
270.0
  0
ELLIPSE
  5
40
330
2
100
AcDbEntity
  8
OUTLINE
  6
CONTINUOUS
100
AcDbEllipse
 10
690.0212407930681
 20
746.765031816747
 30
0.0
 11
15.51119979707161
 21
-0.5423243746293613
 31
0.0
210
0.0
220
0.0
230
1.0
 40
0.0348994448
 41
1.230527508068999
 42
3.080205192770319
  0
ELLIPSE
  5
41
330
2
100
AcDbEntity
  8
OUTLINE
  6
CONTINUOUS
100
AcDbEllipse
 10
690.0212407930681
 20
746.765031816747
 30
0.0
 11
15.51119979707161
 21
-0.5423243746293613
 31
0.0
210
0.0
220
0.0
230
1.0
 40
0.0348994448
 41
3.080205192770319
 42
3.240130684545361
  0
ELLIPSE
  5
42
330
2
100
AcDbEntity
  8
OUTLINE
  6
CONTINUOUS
100
AcDbEllipse
 10
690.0212407930681
 20
746.765031816747
 30
0.0
 11
15.51119979707161
 21
-0.5423243746293613
 31
0.0
210
0.0
220
0.0
230
1.0
 40
0.0348994448
 41
3.240130684545361
 42
3.507153916338093
  0
LINE
  5
43
330
2
100
AcDbEntity
  8
OUTLINE
  6
CONTINUOUS
100
AcDbLine
 10
695.1705343455955
 20
795.7682952157624
 30
0.0
 11
678.7797366200344
 21
795.1959159467016
 31
0.0
  0
ARC
  5
44
330
2
100
AcDbEntity
  8
OUTLINE
  6
CONTINUOUS
100
AcDbCircle
 10
671.7055610237231
 20
793.5892416257932
 30
0.0
 40
0.6608671391850633
100
AcDbArc
 50
102.4338712068993
 51
159.742251709299
  0
SPLINE
  5
45
330
2
100
AcDbEntity
  8
OUTLINE
  6
CONTINUOUS
100
AcDbSpline
210
0.0
220
0.0
230
1.0
 70
     8
 71
     3
 72
    12
 73
     8
 74
     0
 42
0.0000000001
 43
0.0000000001
 40
0.0
 40
0.0
 40
0.0
 40
0.0
 40
0.019838615543178
 40
0.2640007602943553
 40
0.534727299386863
 40
0.9280164869370354
 40
1.0
 40
1.0
 40
1.0
 40
1.0
 10
671.0929591476983
 20
747.7450792122979
 30
0.0
 10
671.0936659846439
 20
747.7360746017883
 30
0.0
 10
671.1015124749382
 20
747.6330554300346
 30
0.0
 10
671.2394903884666
 20
747.5120578396785
 30
0.0
 10
671.374203499595
 20
747.3995448700431
 30
0.0
 10
671.4839277770089
 20
747.3446613285814
 30
0.0
 10
671.5621474343906
 20
747.3201890477862
 30
0.0
 10
671.5762501936242
 20
747.3158758429914
 30
0.0
  0
SPLINE
  5
46
330
2
100
AcDbEntity
  8
OUTLINE
  6
CONTINUOUS
100
AcDbSpline
210
0.0
220
0.0
230
1.0
 70
     8
 71
     3
 72
    14
 73
    10
 74
     0
 42
0.0000000001
 43
0.0000000001
 40
0.0
 40
0.0
 40
0.0
 40
0.0
 40
0.2329554854967488
 40
0.2329554854967488
 40
0.6164777427483742
 40
0.6164777427483742
 40
0.8082388713741869
 40
0.8082388713741869
 40
1.0
 40
1.0
 40
1.0
 40
1.0
 10
671.0826302460231
 20
747.7467783733032
 30
0.0
 10
671.0713170237851
 20
747.7787372331051
 30
0.0
 10
671.0904311869714
 20
747.8096158709062
 30
0.0
 10
671.2209592001763
 20
747.8883581845779
 30
0.0
 10
671.3840898849026
 20
747.9344544368382
 30
0.0
 10
671.7554708078847
 20
747.9991067175434
 30
0.0
 10
671.9006567821321
 20
748.0199236532402
 30
0.0
 10
672.2316416440885
 20
748.0597110219727
 30
0.0
 10
672.4074834329031
 20
748.0889590645618
 30
0.0
 10
672.6245122190618
 20
748.0958430333787
 30
0.0
  0
SPLINE
  5
47
330
2
100
AcDbEntity
  8
OUTLINE
  6
CONTINUOUS
100
AcDbSpline
210
0.0
220
0.0
230
1.0
 70
     8
 71
     3
 72
    14
 73
    10
 74
     0
 42
0.0000000001
 43
0.0000000001
 40
0.0
 40
0.0
 40
0.0
 40
0.0
 40
0.1920085819874597
 40
0.1920085819874597
 40
0.3840171639749193
 40
0.3840171639749193
 40
0.7680343279498377
 40
0.7680343279498377
 40
1.0
 40
1.0
 40
1.0
 40
1.0
 10
672.6244972319451
 20
793.4705394226791
 30
0.0
 10
672.4080581902332
 20
793.4780417378886
 30
0.0
 10
672.2314439302704
 20
793.5067504673058
 30
0.0
 10
671.9005403663165
 20
793.5465322970643
 30
0.0
 10
671.7557153277804
 20
793.567287464559
 30
0.0
 10
671.3832140411811
 20
793.6321440555141
 30
0.0
 10
671.2195646828637
 20
793.6785273343182
 30
0.0
 10
671.090074917805
 20
793.7572814496375
 30
0.0
 10
671.0711037685538
 20
793.7879611488512
 30
0.0
 10
671.0821649966228
 20
793.8196684371563
 30
0.0
  0
SPLINE
  5
48
330
2
100
AcDbEntity
  8
OUTLINE
  6
CONTINUOUS
100
AcDbSpline
210
0.0
220
0.0
230
1.0
 70
     8
 71
     3
 72
     8
 73
     4
 74
     0
 42
0.0000000001
 43
0.0000000001
 40
0.0
 40
0.0
 40
0.0
 40
0.0
 40
1.0
 40
1.0
 40
1.0
 40
1.0
 10
671.0821649966228
 20
793.8196684371563
 30
0.0
 10
671.0826689646816
 20
793.8211130742636
 30
0.0
 10
671.0832352759322
 20
793.8225598445081
 30
0.0
 10
671.083863953124
 20
793.8240087483598
 30
0.0
  0
LINE
  5
49
330
2
100
AcDbEntity
  8
OUTLINE
  6
CONTINUOUS
100
AcDbLine
 10
672.6245079042961
 20
793.4705384395488
 30
0.0
 11
672.6244972317817
 21
793.4705394226592
 31
0.0
  0
ELLIPSE
  5
4A
330
2
100
AcDbEntity
  8
OUTLINE
  6
CONTINUOUS
100
AcDbEllipse
 10
695.2659061645674
 20
793.0372036444063
 30
0.0
 11
-0.0058337728643476
 21
0.5003276468066665
 31
0.0
210
0.0
220
0.0
230
0.9999999999999998
 40
0.5541158706
 41
0.0419366528079319
 42
1.238832680869417
  0
ARC
  5
4B
330
2
100
AcDbEntity
  8
OUTLINE
  6
CONTINUOUS
100
AcDbCircle
 10
695.6194965148434
 20
770.7832199189846
 30
0.0
 40
22.75676101888906
100
AcDbArc
 50
269.0657683065961
 51
90.93423169340374
  0
LINE
  5
4C
330
2
100
AcDbEntity
  8
OUTLINE
  6
CONTINUOUS
100
AcDbLine
 10
712.0433601188816
 20
787.0981616426059
 30
0.0
 11
712.1004465355572
 21
787.1400659926401
 31
0.0
  0
LINE
  5
4D
330
2
100
AcDbEntity
  8
OUTLINE
  6
CONTINUOUS
100
AcDbLine
 10
712.1004465355572
 20
754.4263738457297
 30
0.0
 11
712.0433601188816
 21
754.4682781957637
 31
0.0
  0
SPLINE
  5
4E
330
2
100
AcDbEntity
  8
OUTLINE
  6
CONTINUOUS
100
AcDbSpline
210
0.0
220
0.0
230
1.0
 70
     8
 71
     3
 72
    12
 73
     8
 74
     0
 42
0.0000000001
 43
0.0000000001
 40
0.0
 40
0.0
 40
0.0
 40
0.0
 40
0.4310781342949245
 40
0.4310781342949245
 40
0.8621562685898492
 40
0.8621562685898492
 40
1.0
 40
1.0
 40
1.0
 40
1.0
 10
678.7797472576118
 20
795.1956113254214
 30
0.0
 10
677.0702441285281
 20
795.0504890782682
 30
0.0
 10
675.6588143954968
 20
794.9106478852677
 30
0.0
 10
673.4161407076444
 20
794.6412448215879
 30
0.0
 10
672.587332738041
 20
794.5108851982478
 30
0.0
 10
671.9385455360044
 20
794.3539690162187
 30
0.0
 10
671.8140468499932
 20
794.3169458381701
 30
0.0
 10
671.7226778211631
 20
794.2809402299673
 30
0.0
  0
SPLINE
  5
4F
330
2
100
AcDbEntity
  8
OUTLINE
  6
CONTINUOUS
100
AcDbSpline
210
0.0
220
0.0
230
1.0
 70
     8
 71
     3
 72
    10
 73
     6
 74
     0
 42
0.0000000001
 43
0.0000000001
 40
0.0
 40
0.0
 40
0.0
 40
0.0
 40
0.8873337881888108
 40
0.8873337881888108
 40
1.0
 40
1.0
 40
1.0
 40
1.0
 10
671.7226778211631
 20
794.2809402299673
 30
0.0
 10
671.5283088619282
 20
794.204345647727
 30
0.0
 10
671.483864448821
 20
794.1323559636433
 30
0.0
 10
671.6074470642421
 20
794.0566498026303
 30
0.0
 10
671.6238377870763
 20
794.0482205708686
 30
0.0
 10
671.6426880903363
 20
794.0398913264981
 30
0.0
  0
SPLINE
  5
50
330
2
100
AcDbEntity
  8
OUTLINE
  6
CONTINUOUS
100
AcDbSpline
210
0.0
220
0.0
230
1.0
 70
     8
 71
     3
 72
    10
 73
     6
 74
     0
 42
0.0000000001
 43
0.0000000001
 40
0.0
 40
0.0
 40
0.0
 40
0.0
 40
0.4527321872944559
 40
0.4527321872944559
 40
1.0
 40
1.0
 40
1.0
 40
1.0
 10
671.6426880903363
 20
794.0398913264981
 30
0.0
 10
671.7329624074404
 20
794.0000024802969
 30
0.0
 10
671.8796462918941
 20
793.9624068079145
 30
0.0
 10
672.3264079960287
 20
793.884355715333
 30
0.0
 10
672.6386854261082
 20
793.8443962363101
 30
0.0
 10
673.060606152612
 20
793.808894000066
 30
0.0
  0
LINE
  5
51
330
2
100
AcDbEntity
  8
OUTLINE
  6
CONTINUOUS
100
AcDbLine
 10
672.6245122190143
 20
748.095843033435
 30
0.0
 11
672.6245269480606
 21
748.0958443856122
 31
0.0
  0
LINE
  5
52
330
2
100
AcDbEntity
  8
OUTLINE
  6
CONTINUOUS
100
AcDbLine
 10
672.6244182803167
 20
793.4702371329673
 30
0.0
 11
672.6245079042961
 21
793.4705384395488
 31
0.0
  0
LINE
  5
53
330
2
100
AcDbEntity
  8
OUTLINE
  6
CONTINUOUS
100
AcDbLine
 10
672.6245269480606
 20
748.0958443856122
 30
0.0
 11
672.6244034564021
 21
748.0962594636265
 31
0.0
  0
ARC
  5
54
330
2
100
AcDbEntity
  8
OUTLINE
  6
CONTINUOUS
100
AcDbCircle
 10
673.0888045571511
 20
793.3223337723363
 30
0.0
 40
0.4873766564448447
100
AcDbArc
 50
93.31684397690692
 51
162.2967853139994
  0
ARC
  5
55
330
2
100
AcDbEntity
  8
OUTLINE
  6
CONTINUOUS
100
AcDbCircle
 10
673.0888079327911
 20
748.2441091458591
 30
0.0
 40
0.487380008067363
100
AcDbArc
 50
197.710504723
 51
266.6827593336996
  0
LINE
  5
56
330
2
100
AcDbEntity
  8
OUTLINE
  6
CONTINUOUS
100
AcDbLine
 10
695.1705449832843
 20
795.7679905943852
 30
0.0
 11
695.1705343455955
 21
795.7682952157624
 31
0.0
  0
LINE
  5
57
330
2
100
AcDbEntity
  8
OUTLINE
  6
CONTINUOUS
100
AcDbLine
 10
678.7797472577231
 20
795.1956113253245
 30
0.0
 11
678.7797366200344
 21
795.1959159467016
 31
0.0
  0
ELLIPSE
  5
58
330
2
100
AcDbEntity
  8
OUTLINE
  6
CONTINUOUS
100
AcDbEllipse
 10
695.2659061645674
 20
748.5292361939631
 30
0.0
 11
-0.0058337728644175
 21
-0.5003276468064372
 31
0.0
210
0.0
220
0.0
230
0.9999999999999998
 40
0.5541158706000001
 41
5.044352626310278
 42
6.241248654377311
  0
LINE
  5
59
330
2
100
AcDbEntity
  8
OUTLINE
  6
CONTINUOUS
100
AcDbLine
 10
695.2484544322341
 20
748.0294839653818
 30
0.0
 11
695.2157981770278
 21
747.0943311705402
 31
0.0
  0
ARC
  5
5A
330
2
100
AcDbEntity
  8
OUTLINE
  6
CONTINUOUS
100
AcDbCircle
 10
695.3865636637694
 20
770.7832199189846
 30
0.0
 40
22.4172849374618
100
AcDbArc
 50
269.0168034592983
 51
90.9831965407017
  0
ARC
  5
5B
330
2
100
AcDbEntity
  8
OUTLINE
  6
CONTINUOUS
100
AcDbCircle
 10
687.6797958090662
 20
1110.239206362208
 30
0.0
 40
317.1265429746755
100
AcDbArc
 50
267.2788971262988
 51
271.3230145801003
  0
ARC
  5
5C
330
2
100
AcDbEntity
  8
OUTLINE
  6
CONTINUOUS
100
AcDbCircle
 10
687.6770341053347
 20
431.4869451485171
 30
0.0
 40
316.9669377092278
100
AcDbArc
 50
88.67581976560447
 51
92.72197699320326
  0
ELLIPSE
  5
5D
330
2
100
AcDbEntity
  8
OUTLINE
  6
CONTINUOUS
100
AcDbEllipse
 10
708.2028424601367
 20
770.7832199189846
 30
0.0
 11
0.0000000000002323
 21
-60.04339875233291
 31
0.0
210
0.0
220
0.0
230
1.0
 40
0.6399878122000002
 41
4.324922789143395
 42
4.578657390974743
  0
ELLIPSE
  5
5E
330
2
100
AcDbEntity
  8
OUTLINE
  6
CONTINUOUS
100
AcDbEllipse
 10
708.2028424601367
 20
770.7832199189846
 30
0.0
 11
0.0000000000002323
 21
-60.04339875233291
 31
0.0
210
0.0
220
0.0
230
1.0
 40
0.6399878122000002
 41
4.846120569794628
 42
5.099854150646226
  0
ARC
  5
5F
330
2
100
AcDbEntity
  8
OUTLINE
  6
CONTINUOUS
100
AcDbCircle
 10
687.8338015300207
 20
1093.870299941859
 30
0.0
 40
300.4248568897994
100
AcDbArc
 50
267.1813808686021
 51
271.4142353710988
  0
ARC
  5
60
330
2
100
AcDbEntity
  8
OUTLINE
  6
CONTINUOUS
100
AcDbCircle
 10
696.0430324006343
 20
770.7832199189846
 30
0.0
 40
22.92132112604547
100
AcDbArc
 50
314.4707360818064
 51
45.52926391819343
  0
ELLIPSE
  5
61
330
2
100
AcDbEntity
  8
OUTLINE
  6
CONTINUOUS
100
AcDbEllipse
 10
678.7971989900562
 20
794.6958590971433
 30
0.0
 11
0.0423242082384434
 21
-0.4985683989802041
 31
0.0
210
0.0
220
0.0
230
0.9999999999999996
 40
0.8185522908999999
 41
3.080800425796689
 42
3.141592653589792
  0
ARC
  5
62
330
2
100
AcDbEntity
  8
OUTLINE
  6
CONTINUOUS
100
AcDbCircle
 10
696.0430324006343
 20
770.7832199189846
 30
0.0
 40
22.85142906998473
100
AcDbArc
 50
314.4421991374979
 51
45.5578008625019
  0
SPLINE
  5
63
330
2
100
AcDbEntity
  8
OUTLINE
  6
CONTINUOUS
100
AcDbSpline
210
0.0
220
0.0
230
1.0
 70
     8
 71
     3
 72
    10
 73
     6
 74
     0
 42
0.0000000001
 43
0.0000000001
 40
0.0
 40
0.0
 40
0.0
 40
0.0
 40
0.5513642195961812
 40
0.5513642195961812
 40
1.0
 40
1.0
 40
1.0
 40
1.0
 10
673.060605965734
 20
747.7575457673273
 30
0.0
 10
672.6376904923437
 20
747.7220597510312
 30
0.0
 10
672.3277350463163
 20
747.6822042645709
 30
0.0
 10
671.8861303285489
 20
747.6052557358474
 30
0.0
 10
671.7416088232468
 20
747.5686606116693
 30
0.0
 10
671.650642672054
 20
747.5299938828061
 30
0.0
  0
SPLINE
  5
64
330
2
100
AcDbEntity
  8
OUTLINE
  6
CONTINUOUS
100
AcDbSpline
210
0.0
220
0.0
230
1.0
 70
     8
 71
     3
 72
    10
 73
     6
 74
     0
 42
0.0000000001
 43
0.0000000001
 40
0.0
 40
0.0
 40
0.0
 40
0.0
 40
0.1178575367866742
 40
0.1178575367866742
 40
1.0
 40
1.0
 40
1.0
 40
1.0
 10
671.650642672054
 20
747.5299938828061
 30
0.0
 10
671.6298132796168
 20
747.5211399909002
 30
0.0
 10
671.6117918830206
 20
747.5121774813327
 30
0.0
 10
671.4827045524002
 20
747.4352107671787
 30
0.0
 10
671.5298132847935
 20
747.3605958866827
 30
0.0
 10
671.7348599484353
 20
747.2813216305942
 30
0.0
  0
SPLINE
  5
65
330
2
100
AcDbEntity
  8
OUTLINE
  6
CONTINUOUS
100
AcDbSpline
210
0.0
220
0.0
230
1.0
 70
     8
 71
     3
 72
    12
 73
     8
 74
     0
 42
0.0000000001
 43
0.0000000001
 40
0.0
 40
0.0
 40
0.0
 40
0.0
 40
0.1930492087453412
 40
0.1930492087453412
 40
0.8307520157065631
 40
0.8307520157065631
 40
1.0
 40
1.0
 40
1.0
 40
1.0
 10
671.7348599484353
 20
747.2813216305942
 30
0.0
 10
671.8238822712739
 20
747.2469042043702
 30
0.0
 10
671.9426745968667
 20
747.2116085241188
 30
0.0
 10
672.5809133904824
 20
747.0566660209855
 30
0.0
 10
673.3854524991726
 20
746.9292984284297
 30
0.0
 10
674.8144584544568
 20
746.7571155060652
 30
0.0
 10
675.1349951458529
 20
746.7206483252446
 30
0.0
 10
675.4761725437407
 20
746.6838437166849
 30
0.0
  0
ARC
  5
66
330
2
100
AcDbEntity
  8
OUTLINE
  6
CONTINUOUS
100
AcDbCircle
 10
688.2106163378957
 20
416.9513183062295
 30
0.0
 40
331.1529600369608
100
AcDbArc
 50
88.78222806480611
 51
92.62215604920269
  0
LINE
  5
67
330
2
100
AcDbEntity
  8
OUTLINE
  6
CONTINUOUS
100
AcDbLine
 10
695.2484544322341
 20
793.5369558725875
 30
0.0
 11
695.1705449832843
 21
795.7679905943852
 31
0.0
  0
LINE
  5
68
330
2
100
AcDbEntity
  8
OUTLINE
  6
CONTINUOUS
100
AcDbLine
 10
712.5606958790591
 20
754.9909897775298
 30
0.0
 11
712.5604030149799
 21
754.9919476927011
 31
0.0
  0
LINE
  5
69
330
2
100
AcDbEntity
  8
OUTLINE
  6
CONTINUOUS
100
AcDbLine
 10
712.5604030149799
 20
786.5744921452682
 30
0.0
 11
712.5606958790591
 21
786.5754500608397
 31
0.0
  0
ARC
  5
6A
330
2
100
AcDbEntity
  8
OUTLINE
  6
CONTINUOUS
100
AcDbCircle
 10
696.0430324006343
 20
770.7832199189846
 30
0.0
 40
22.85230272065046
100
AcDbArc
 50
316.2862093206991
 51
43.71379067930075
  0
SPLINE
  5
6B
330
2
100
AcDbEntity
  8
OUTLINE
  6
CONTINUOUS
100
AcDbSpline
210
0.0
220
0.0
230
1.0
 70
     8
 71
     3
 72
    20
 73
    16
 74
     0
 42
0.0000000001
 43
0.0000000001
 40
0.0
 40
0.0
 40
0.0
 40
0.0
 40
0.0348279294958001
 40
0.0804320452217823
 40
0.1368171454855641
 40
0.2156648582918903
 40
0.2719182059649535
 40
0.4127881544947483
 40
0.5327522964604805
 40
0.6180006736924818
 40
0.7001887600356517
 40
0.7793911600804205
 40
0.855693361022147
 40
0.9291928065671692
 40
1.0
 40
1.0
 40
1.0
 40
1.0
 10
717.0999134194836
 20
722.3775067338757
 30
0.0
 10
717.0902158005458
 20
722.3803801214674
 30
0.0
 10
717.0678200010756
 20
722.3870159578215
 30
0.0
 10
717.0300773429667
 20
722.4078826787534
 30
0.0
 10
716.9808938529136
 20
722.4475839209563
 30
0.0
 10
716.9302437785172
 20
722.5076457457138
 30
0.0
 10
716.8604260368152
 20
722.6187478230485
 30
0.0
 10
716.7849596781384
 20
722.7874349929435
 30
0.0
 10
716.7148528680455
 20
723.0250465390487
 30
0.0
 10
716.6650885997911
 20
723.2537109984523
 30
0.0
 10
716.6295821426221
 20
723.4695725414931
 30
0.0
 10
716.6030810980165
 20
723.6931424775295
 30
0.0
 10
716.585609018397
 20
723.9202394266916
 30
0.0
 10
716.5759903875559
 20
724.1468841497698
 30
0.0
 10
716.5758914148559
 20
724.2985120419059
 30
0.0
 10
716.5758428366922
 20
724.3729115657887
 30
0.0
  0
ARC
  5
6C
330
2
100
AcDbEntity
  8
OUTLINE
  6
CONTINUOUS
100
AcDbCircle
 10
693.0785608430197
 20
725.900779351616
 30
0.0
 40
25.01808281347198
100
AcDbArc
 50
352.2142750131976
 51
2.130403990796923
  0
LINE
  5
6D
330
2
100
AcDbEntity
  8
OUTLINE
  6
CONTINUOUS
100
AcDbLine
 10
704.5491805572148
 20
742.9130756647769
 30
0.0
 11
704.5491805572148
 21
748.3334838325654
 31
0.0
  0
ARC
  5
6E
330
2
100
AcDbEntity
  8
OUTLINE
  6
CONTINUOUS
100
AcDbCircle
 10
639.3044929562878
 20
-136.7293308223826
 30
0.0
 40
869.6106325195021
100
AcDbArc
 50
84.86649868300473
 51
86.98124305960568
  0
ARC
  5
6F
330
2
100
AcDbEntity
  8
OUTLINE
  6
CONTINUOUS
100
AcDbCircle
 10
678.3564975387703
 20
722.0671617769811
 30
0.0
 40
2.001446625077758
100
AcDbArc
 50
184.5428556530009
 51
268.7728816093963
  0
ARC
  5
70
330
2
100
AcDbEntity
  8
OUTLINE
  6
CONTINUOUS
100
AcDbCircle
 10
717.0529832638719
 20
728.7538799210231
 30
0.0
 40
0.6406501517540552
100
AcDbArc
 50
20.65351587689515
 51
82.94911647649646
  0
ARC
  5
71
330
2
100
AcDbEntity
  8
OUTLINE
  6
CONTINUOUS
100
AcDbCircle
 10
712.2411427117095
 20
726.771599534706
 30
0.0
 40
5.838327252613602
100
AcDbArc
 50
0.6489943544985321
 51
22.7802563786039
  0
ARC
  5
72
330
2
100
AcDbEntity
  8
OUTLINE
  6
CONTINUOUS
100
AcDbCircle
 10
717.4016800643403
 20
722.4802267877313
 30
0.0
 40
0.4314724606659363
100
AcDbArc
 50
273.6436813161024
 51
325.9014297689974
  0
LINE
  5
73
330
2
100
AcDbEntity
  8
OUTLINE
  6
CONTINUOUS
100
AcDbLine
 10
717.8030913579033
 20
722.3104275641953
 30
0.0
 11
717.8639620566197
 21
722.5186742287469
 31
0.0
  0
ARC
  5
74
330
2
100
AcDbEntity
  8
OUTLINE
  6
CONTINUOUS
100
AcDbCircle
 10
690.0386925254013
 20
1267.440883120252
 30
0.0
 40
547.5002730322053
100
AcDbArc
 50
268.7728816095006
 51
271.2271183904992
  0
SPLINE
  5
75
330
2
100
AcDbEntity
  8
OUTLINE
  6
CONTINUOUS
100
AcDbSpline
210
0.0
220
0.0
230
1.0
 70
     8
 71
     3
 72
    11
 73
     7
 74
     0
 42
0.0000000001
 43
0.0000000001
 40
0.0
 40
0.0
 40
0.0
 40
0.0
 40
0.1473062946843995
 40
0.4655539447323431
 40
0.8720078833229647
 40
1.0
 40
1.0
 40
1.0
 40
1.0
 10
696.1108952202936
 20
720.1457443708505
 30
0.0
 10
696.1107277356545
 20
720.1457130005905
 30
0.0
 10
696.1307410087903
 20
720.1480089384013
 30
0.0
 10
696.2497142029489
 20
720.1575091862463
 30
0.0
 10
696.4423860434777
 20
720.1689110554546
 30
0.0
 10
696.5965617065231
 20
720.1762553779738
 30
0.0
 10
696.6400842665957
 20
720.1783187888678
 30
0.0
  0
LINE
  5
76
330
2
100
AcDbEntity
  8
OUTLINE
  6
CONTINUOUS
100
AcDbLine
 10
713.9210646184211
 20
721.6110269357997
 30
0.0
 11
717.4030691519589
 21
722.0352338437987
 31
0.0
  0
LINE
  5
77
330
2
100
AcDbEntity
  8
OUTLINE
  6
CONTINUOUS
100
AcDbLine
 10
675.5282044935873
 20
747.4642703752001
 30
0.0
 11
675.5282044935873
 21
742.9130756647769
 31
0.0
  0
ARC
  5
78
330
2
100
AcDbEntity
  8
OUTLINE
  6
CONTINUOUS
100
AcDbCircle
 10
701.7208875124311
 20
722.0671617769811
 30
0.0
 40
2.001446625077758
100
AcDbArc
 50
271.2271183906035
 51
311.1912809799964
  0
ARC
  5
79
330
2
100
AcDbEntity
  8
OUTLINE
  6
CONTINUOUS
100
AcDbCircle
 10
940.7198823163904
 20
742.9130756647769
 30
0.0
 40
265.191677822803
100
AcDbArc
 50
180.0
 51
184.5428556530009
  0
ARC
  5
7A
330
2
100
AcDbEntity
  8
OUTLINE
  6
CONTINUOUS
100
AcDbCircle
 10
439.3575027344114
 20
742.9130756647769
 30
0.0
 40
265.191677822803
100
AcDbArc
 50
357.3003830251972
 51
0.0
  0
ARC
  5
7B
330
2
100
AcDbEntity
  8
OUTLINE
  6
CONTINUOUS
100
AcDbCircle
 10
677.2705921022671
 20
1062.917009898721
 30
0.0
 40
342.8607998189861
100
AcDbArc
 50
270.4368159386043
 51
276.6709758550033
  0
SPLINE
  5
7C
330
2
100
AcDbEntity
  8
OUTLINE
  6
CONTINUOUS
100
AcDbSpline
210
0.0
220
0.0
230
1.0
 70
     8
 71
     3
 72
    14
 73
    10
 74
     0
 42
0.0000000001
 43
0.0000000001
 40
0.0
 40
0.0
 40
0.0
 40
0.0
 40
0.25
 40
0.25
 40
0.5
 40
0.5
 40
0.75
 40
0.75
 40
1.0
 40
1.0
 40
1.0
 40
1.0
 10
679.8844951250472
 20
720.0661741649739
 30
0.0
 10
679.6722009453047
 20
720.0714251127499
 30
0.0
 10
679.4608158318102
 20
720.1222212752578
 30
0.0
 10
679.067849212203
 20
720.308179077792
 30
0.0
 10
678.8863864324444
 20
720.4432845346956
 30
0.0
 10
678.5775259618731
 20
720.7798618206902
 30
0.0
 10
678.4502215865618
 20
720.9812319602447
 30
0.0
 10
678.2667185024102
 20
721.4234756494391
 30
0.0
 10
678.2105752350522
 20
721.6642155847274
 30
0.0
 10
678.1937556104894
 20
721.9086376195247
 30
0.0
  0
LINE
  5
7D
330
2
100
AcDbEntity
  8
OUTLINE
  6
CONTINUOUS
100
AcDbLine
 10
678.3136353203992
 20
720.0661741648732
 30
0.0
 11
679.8844951249426
 21
720.0661741648732
 31
0.0
  0
LINE
  5
7E
330
2
100
AcDbEntity
  8
OUTLINE
  6
CONTINUOUS
100
AcDbLine
 10
697.3703508651966
 20
720.0661741648732
 30
0.0
 11
701.7637497304026
 21
720.0661741648732
 31
0.0
  0
SPLINE
  5
7F
330
2
100
AcDbEntity
  8
OUTLINE
  6
CONTINUOUS
100
AcDbSpline
210
0.0
220
0.0
230
1.0
 70
     8
 71
     3
 72
    10
 73
     6
 74
     0
 42
0.0000000001
 43
0.0000000001
 40
0.0
 40
0.0
 40
0.0
 40
0.0
 40
0.9327093411150478
 40
0.9327093411150478
 40
1.0
 40
1.0
 40
1.0
 40
1.0
 10
697.3703508653758
 20
720.0661741649739
 30
0.0
 10
697.5236452080357
 20
720.0714252707967
 30
0.0
 10
697.6762789939136
 20
720.1222216588116
 30
0.0
 10
697.8283882179981
 20
720.2219089924629
 30
0.0
 10
697.8385672959101
 20
720.2288362865536
 30
0.0
 10
697.8486866648117
 20
720.2359794899865
 30
0.0
  0
ELLIPSE
  5
80
330
2
100
AcDbEntity
  8
OUTLINE
  6
CONTINUOUS
100
AcDbEllipse
 10
717.1973495531439
 20
728.7718474970026
 30
0.0
 11
-0.4524440053729319
 21
-0.2137339912863593
 31
0.0
210
0.0
220
0.0
230
1.0
 40
0.9173386037
 41
2.791966667234514
 42
3.127447494112579
  0
SPLINE
  5
81
330
2
100
AcDbEntity
  8
OUTLINE
  6
CONTINUOUS
100
AcDbSpline
210
0.0
220
0.0
230
1.0
 70
     8
 71
     3
 72
    16
 73
    12
 74
     0
 42
0.0000000001
 43
0.0000000001
 40
0.0
 40
0.0
 40
0.0
 40
0.0
 40
0.1095883298236936
 40
0.2194788913565085
 40
0.3297051013156738
 40
0.4403005557795683
 40
0.5512989911538213
 40
0.662734245115826
 40
0.7746402177158856
 40
0.8870508328109933
 40
1.0
 40
1.0
 40
1.0
 40
1.0
 10
717.3806285934439
 20
722.0359221167528
 30
0.0
 10
717.3858352609272
 20
722.0485231522348
 30
0.0
 10
717.3962629552693
 20
722.0737599753697
 30
0.0
 10
717.3981421863905
 20
722.1116162085222
 30
0.0
 10
717.3898273789798
 20
722.1495240528184
 30
0.0
 10
717.3702121246606
 20
722.1874736548516
 30
0.0
 10
717.3394208866375
 20
722.225458118226
 30
0.0
 10
717.2973329071902
 20
722.2634712625225
 30
0.0
 10
717.243574631072
 20
722.3015013700988
 30
0.0
 10
717.1790435984486
 20
722.3395586255681
 30
0.0
 10
717.1263321347661
 20
722.3648372279808
 30
0.0
 10
717.0999134194836
 20
722.3775067338757
 30
0.0
  0
LINE
  5
82
330
2
100
AcDbEntity
  8
OUTLINE
  6
CONTINUOUS
100
AcDbLine
 10
717.3512362156441
 20
727.3670770781627
 30
0.0
 11
717.3638992315424
 21
724.3635929742801
 31
0.0
  0
ARC
  5
83
330
2
100
AcDbEntity
  8
OUTLINE
  6
CONTINUOUS
100
AcDbCircle
 10
709.8112578610798
 20
726.2190269437089
 30
0.0
 40
8.299860676907503
100
AcDbArc
 50
4.267326227395781
 51
18.33896374590118
  0
SPLINE
  5
84
330
2
100
AcDbEntity
  8
OUTLINE
  6
CONTINUOUS
100
AcDbSpline
210
0.0
220
0.0
230
1.0
 70
     8
 71
     3
 72
    14
 73
    10
 74
     0
 42
0.0000000001
 43
0.0000000001
 40
0.0
 40
0.0
 40
0.0
 40
0.0
 40
0.1036692510983234
 40
0.2046175034655958
 40
0.3050425066967512
 40
0.457262196098897
 40
0.6100731471120021
 40
0.8011980082783717
 40
1.0
 40
1.0
 40
1.0
 40
1.0
 10
717.5649090772195
 20
722.813903793997
 30
0.0
 10
717.5853892251032
 20
722.804304245067
 30
0.0
 10
717.6258119800281
 20
722.7853571058168
 30
0.0
 10
717.677942000988
 20
722.7567986464729
 30
0.0
 10
717.731449882508
 20
722.7225001068148
 30
0.0
 10
717.7825093434277
 20
722.6859716762134
 30
0.0
 10
717.828967019827
 20
722.6365940697711
 30
0.0
 10
717.8606774908113
 20
722.586702828612
 30
0.0
 10
717.8686787003795
 20
722.5485467734198
 30
0.0
 10
717.8675793996814
 20
722.5292664812123
 30
0.0
  0
SPLINE
  5
85
330
2
100
AcDbEntity
  8
OUTLINE
  6
CONTINUOUS
100
AcDbSpline
210
0.0
220
0.0
230
1.0
 70
     8
 71
     3
 72
     9
 73
     5
 74
     0
 42
0.0000000001
 43
0.0000000001
 40
0.0
 40
0.0
 40
0.0
 40
0.0
 40
0.0350977895507335
 40
1.0
 40
1.0
 40
1.0
 40
1.0
 10
717.8675793996814
 20
722.5292664812123
 30
0.0
 10
717.8675691100196
 20
722.5290860140387
 30
0.0
 10
717.8672630114935
 20
722.5239446080619
 30
0.0
 10
717.8665877008849
 20
722.518816047156
 30
0.0
 10
717.8656729096161
 20
722.5138766436532
 30
0.0
  0
ARC
  5
86
330
2
100
AcDbEntity
  8
OUTLINE
  6
CONTINUOUS
100
AcDbCircle
 10
709.2845409158783
 20
724.1727870581224
 30
0.0
 40
8.388996635463456
100
AcDbArc
 50
345.1966094892984
 51
345.2039440012021
  0
ARC
  5
87
330
2
100
AcDbEntity
  8
OUTLINE
  6
CONTINUOUS
100
AcDbCircle
 10
709.2845409158783
 20
724.1727870581224
 30
0.0
 40
8.388996635463456
100
AcDbArc
 50
345.2039440012021
 51
345.2146449645979
  0
LINE
  5
88
330
2
100
AcDbEntity
  8
OUTLINE
  6
CONTINUOUS
100
AcDbLine
 10
678.1937566725429
 20
721.9086377170177
 30
0.0
 11
677.9611806185581
 21
725.617865148934
 31
0.0
  0
LINE
  5
89
330
2
100
AcDbEntity
  8
OUTLINE
  6
CONTINUOUS
100
AcDbLine
 10
677.9611806185581
 20
725.617865148934
 30
0.0
 11
677.6881935042739
 21
731.4154976878262
 31
0.0
  0
LINE
  5
8A
330
2
100
AcDbEntity
  8
OUTLINE
  6
CONTINUOUS
100
AcDbLine
 10
677.6881935042739
 20
731.4154976878262
 30
0.0
 11
677.6701848149784
 21
731.9051192268492
 31
0.0
  0
LINE
  5
8B
330
2
100
AcDbEntity
  8
OUTLINE
  6
CONTINUOUS
100
AcDbLine
 10
684.2633894604232
 20
732.6174358131667
 30
0.0
 11
686.4851332676431
 21
732.6729779920834
 31
0.0
  0
ARC
  5
8C
330
2
100
AcDbEntity
  8
OUTLINE
  6
CONTINUOUS
100
AcDbCircle
 10
641.6897990262327
 20
-123.3340189032172
 30
0.0
 40
853.9608074173482
100
AcDbArc
 50
84.96987591909368
 51
87.22912680829798
  0
ELLIPSE
  5
8D
330
2
100
AcDbEntity
  8
OUTLINE
  6
CONTINUOUS
100
AcDbEllipse
 10
684.5402724229867
 20
729.722257399125
 30
0.0
 11
-0.087372537574275
 21
-1.999590741568879
 31
0.0
210
0.0
220
0.0
230
1.0
 40
0.7833415308000001
 41
3.486629798742863
 42
4.793545477819668
  0
ELLIPSE
  5
8E
330
2
100
AcDbEntity
  8
OUTLINE
  6
CONTINUOUS
100
AcDbEllipse
 10
686.2368879432708
 20
732.6343281471722
 30
0.0
 11
0.1076511684398558
 21
0.9949113385404764
 31
0.0
210
0.0
220
0.0
230
1.0
 40
0.2429880212
 41
3.304381053723485
 42
4.777514376860994
  0
SPLINE
  5
8F
330
2
100
AcDbEntity
  8
OUTLINE
  6
CONTINUOUS
100
AcDbSpline
210
0.0
220
0.0
230
1.0
 70
     8
 71
     3
 72
    13
 73
     9
 74
     0
 42
0.0000000001
 43
0.0000000001
 40
0.0
 40
0.0
 40
0.0
 40
0.0
 40
0.1479942847774968
 40
0.2881484830736977
 40
0.420594216876386
 40
0.6420011186196632
 40
0.852061236761642
 40
1.0
 40
1.0
 40
1.0
 40
1.0
 10
686.4851328595861
 20
732.6729738585022
 30
0.0
 10
686.7541467291572
 20
732.6400737820724
 30
0.0
 10
687.2779232963359
 20
732.576016530601
 30
0.0
 10
688.0502234714899
 20
732.4544241524072
 30
0.0
 10
688.9579639736167
 20
732.2834670888537
 30
0.0
 10
689.9903493079664
 20
732.0360314220615
 30
0.0
 10
691.0290148230589
 20
731.7083489095408
 30
0.0
 10
691.6522053348844
 20
731.4614257139383
 30
0.0
 10
691.9055033712862
 20
731.3516817644492
 30
0.0
  0
SPLINE
  5
90
330
2
100
AcDbEntity
  8
OUTLINE
  6
CONTINUOUS
100
AcDbSpline
210
0.0
220
0.0
230
1.0
 70
     8
 71
     3
 72
    14
 73
    10
 74
     0
 42
0.0000000001
 43
0.0000000001
 40
0.0
 40
0.0
 40
0.0
 40
0.0
 40
0.25
 40
0.25
 40
0.5
 40
0.5
 40
0.75
 40
0.75
 40
1.0
 40
1.0
 40
1.0
 40
1.0
 10
684.2633894604882
 20
732.6174358130513
 30
0.0
 10
684.2773315158178
 20
732.5159671336506
 30
0.0
 10
684.2855005456208
 20
732.4082249047021
 30
0.0
 10
684.2857910820472
 20
732.1963481848703
 30
0.0
 10
684.2778235873193
 20
732.0925316587994
 30
0.0
 10
684.2457614064502
 20
731.9079291880536
 30
0.0
 10
684.2217211318756
 20
731.8274480369808
 30
0.0
 10
684.1629509032879
 20
731.701362207391
 30
0.0
 10
684.1283643826201
 20
731.655741465444
 30
0.0
 10
684.0927021379613
 20
731.6271474713917
 30
0.0
  0
ARC
  5
91
330
2
100
AcDbEntity
  8
OUTLINE
  6
CONTINUOUS
100
AcDbCircle
 10
682.6510210562897
 20
772.6520954458333
 30
0.0
 40
41.05027162699203
100
AcDbArc
 50
263.0308423654021
 51
272.0126354321033
  0
SPLINE
  5
92
330
2
100
AcDbEntity
  8
OUTLINE
  6
CONTINUOUS
100
AcDbSpline
210
0.0
220
0.0
230
1.0
 70
     8
 71
     3
 72
    22
 73
    18
 74
     0
 42
0.0000000001
 43
0.0000000001
 40
0.0
 40
0.0
 40
0.0
 40
0.0
 40
0.0322754152287253
 40
0.0659780549092453
 40
0.1011168190328307
 40
0.1376962108190175
 40
0.1757167648292237
 40
0.2151753916230193
 40
0.2560656539574231
 40
0.3751982038725188
 40
0.5094158836072733
 40
0.6210082670841255
 40
0.7583836588926599
 40
0.8197912495290452
 40
0.8803134505184145
 40
0.9399879786124888
 40
1.0
 40
1.0
 40
1.0
 40
1.0
 10
682.9719823788823
 20
729.628372965534
 30
0.0
 10
682.9086186554373
 20
729.631885819163
 30
0.0
 10
682.7790892537247
 20
729.6390668654165
 30
0.0
 10
682.5816311027511
 20
729.6622067357621
 30
0.0
 10
682.3768465732828
 20
729.6944642154072
 30
0.0
 10
682.1650461649019
 20
729.7368253122187
 30
0.0
 10
681.9464790211005
 20
729.7889987177869
 30
0.0
 10
681.7214355072848
 20
729.8510555538488
 30
0.0
 10
681.3454172763649
 20
729.9679887202014
 30
0.0
 10
680.8005251656482
 20
730.173235721811
 30
0.0
 10
680.1444901025899
 20
730.4715856357169
 30
0.0
 10
679.4766504648905
 20
730.8187254177465
 30
0.0
 10
678.9527724467367
 20
731.1161544091893
 30
0.0
 10
678.5269987269622
 20
731.3707203697023
 30
0.0
 10
678.2343168843867
 20
731.5516663606516
 30
0.0
 10
677.9486246382495
 20
731.7309687915559
 30
0.0
 10
677.76317240261
 20
731.8469600573885
 30
0.0
 10
677.6701848147837
 20
731.9051192269532
 30
0.0
  0
ARC
  5
93
330
2
100
AcDbEntity
  8
OUTLINE
  6
CONTINUOUS
100
AcDbCircle
 10
685.1877485000495
 20
720.9617681582193
 30
0.0
 40
10.72144777680814
100
AcDbArc
 50
88.69664561810605
 51
90.47260206920253
  0
ARC
  5
94
330
2
100
AcDbEntity
  8
OUTLINE
  6
CONTINUOUS
100
AcDbCircle
 10
685.1877485000495
 20
720.9617681582193
 30
0.0
 40
10.72144777680814
100
AcDbArc
 50
90.47260206920253
 51
95.8621872490041
  0
ARC
  5
95
330
2
100
AcDbEntity
  8
OUTLINE
  6
CONTINUOUS
100
AcDbCircle
 10
675.5037641691716
 20
782.8270359447905
 30
0.0
 40
50.96797995437571
100
AcDbArc
 50
272.4361210157998
 51
279.8962871402058
  0
LINE
  5
96
330
2
100
AcDbEntity
  8
OUTLINE
  6
CONTINUOUS
100
AcDbLine
 10
675.5282044935873
 20
742.9130756647769
 30
0.0
 11
704.5491805572148
 21
742.9130756647769
 31
0.0
  0
ARC
  5
97
330
2
100
AcDbEntity
  8
OUTLINE
  6
CONTINUOUS
100
AcDbCircle
 10
675.9934735440812
 20
1056.319530696069
 30
0.0
 40
334.4181314601518
100
AcDbArc
 50
270.3769765268066
 51
276.9701471488015
  0
SPLINE
  5
98
330
2
100
AcDbEntity
  8
OUTLINE
  6
CONTINUOUS
100
AcDbSpline
210
0.0
220
0.0
230
1.0
 70
     8
 71
     3
 72
    21
 73
    17
 74
     0
 42
0.0000000001
 43
0.0000000001
 40
0.0
 40
0.0
 40
0.0
 40
0.0
 40
0.0482086802020118
 40
0.0969910653688599
 40
0.1464332048961723
 40
0.1966094764618951
 40
0.2475827492385429
 40
0.2994047371942951
 40
0.3521164986961672
 40
0.4057490429055748
 40
0.4603240095538748
 40
0.5638916147314788
 40
0.669671658138897
 40
0.7776497208693244
 40
0.8877804819401118
 40
1.0
 40
1.0
 40
1.0
 40
1.0
 10
717.3638992315304
 20
724.3635929742403
 30
0.0
 10
717.3623637090632
 20
724.3233834668757
 30
0.0
 10
717.3592743907199
 20
724.2424859409344
 30
0.0
 10
717.3570386498132
 20
724.1222611302381
 30
0.0
 10
717.3565454749656
 20
724.0029130506343
 30
0.0
 10
717.3579840782263
 20
723.8852048789737
 30
0.0
 10
717.3613091395987
 20
723.7698200269591
 30
0.0
 10
717.3665285807147
 20
723.6574810282809
 30
0.0
 10
717.3736252005247
 20
723.5489180041768
 30
0.0
 10
717.3825751281079
 20
723.4448555800971
 30
0.0
 10
717.3965149164882
 20
723.3171010451057
 30
0.0
 10
717.4174616958049
 20
723.1751251610403
 30
0.0
 10
717.4474911235526
 20
723.0341762723213
 30
0.0
 10
717.4824943815622
 20
722.9241851807305
 30
0.0
 10
717.5217094609012
 20
722.8452683136046
 30
0.0
 10
717.5504193050874
 20
722.8244239046111
 30
0.0
 10
717.5649090772195
 20
722.813903793997
 30
0.0
  0
LINE
  5
99
330
2
100
AcDbEntity
  8
OUTLINE
  6
CONTINUOUS
100
AcDbLine
 10
678.1937566725429
 20
721.9086377170177
 30
0.0
 11
676.361338718854
 21
721.9086377170177
 31
0.0
  0
SPLINE
  5
9A
330
2
100
AcDbEntity
  8
OUTLINE
  6
CONTINUOUS
100
AcDbSpline
210
0.0
220
0.0
230
1.0
 70
     8
 71
     3
 72
    10
 73
     6
 74
     0
 42
0.0000000001
 43
0.0000000001
 40
0.0
 40
0.0
 40
0.0
 40
0.0
 40
0.5
 40
0.5
 40
1.0
 40
1.0
 40
1.0
 40
1.0
 10
697.3703508653758
 20
720.0661741649739
 30
0.0
 10
696.560186908228
 20
720.0661750708446
 30
0.0
 10
696.0133373327026
 20
720.0778051830066
 30
0.0
 10
695.6916493804198
 20
720.1179051053217
 30
0.0
 10
695.9266615771918
 20
720.1466665566332
 30
0.0
 10
696.5556130453641
 20
720.1763500487426
 30
0.0
  0
ARC
  5
9B
330
2
100
AcDbEntity
  8
OUTLINE
  6
CONTINUOUS
100
AcDbCircle
 10
683.7576413801017
 20
981.0361509046654
 30
0.0
 40
261.173551075232
100
AcDbArc
 50
272.8087205953056
 51
276.5991127580009
  0
ARC
  5
9C
330
2
100
AcDbEntity
  8
OUTLINE
  6
CONTINUOUS
100
AcDbCircle
 10
683.7576413801017
 20
981.0361509046654
 30
0.0
 40
261.173551075232
100
AcDbArc
 50
276.5991127580009
 51
277.3966781387048
  0
LINE
  5
9D
330
2
100
AcDbEntity
  8
OUTLINE
  6
CONTINUOUS
100
AcDbLine
 10
716.5758428516792
 20
724.3729115676638
 30
0.0
 11
716.5646508414092
 21
727.3379608696658
 31
0.0
  0
SPLINE
  5
9E
330
2
100
AcDbEntity
  8
OUTLINE
  6
CONTINUOUS
100
AcDbSpline
210
0.0
220
0.0
230
1.0
 70
     8
 71
     3
 72
    20
 73
    16
 74
     0
 42
0.0000000001
 43
0.0000000001
 40
0.0
 40
0.0
 40
0.0
 40
0.0
 40
0.0365701886378964
 40
0.074000229593768
 40
0.1122522142383856
 40
0.1512794471127113
 40
0.1910271229004047
 40
0.2314332237284397
 40
0.2724296384715069
 40
0.4138935044687992
 40
0.579113661883457
 40
0.7419711778063866
 40
0.9082994836820299
 40
0.999273218070264
 40
1.0
 40
1.0
 40
1.0
 40
1.0
 10
716.5646508412696
 20
727.3379608695328
 30
0.0
 10
716.5637387072412
 20
727.3786109943602
 30
0.0
 10
716.5618856828242
 20
727.4610916510615
 30
0.0
 10
716.561925763489
 20
727.5855460132507
 30
0.0
 10
716.564229956091
 20
727.7115303485385
 30
0.0
 10
716.5691454723392
 20
727.8382539379484
 30
0.0
 10
716.5767000490306
 20
727.9648745003112
 30
0.0
 10
716.5869205137611
 20
728.0905152406811
 30
0.0
 10
716.6101665475267
 20
728.3148107228384
 30
0.0
 10
716.6605535518947
 20
728.6384567881382
 30
0.0
 10
716.7596834902897
 20
728.9929465660295
 30
0.0
 10
716.8863604267792
 20
729.2542532544247
 30
0.0
 10
717.0076641038838
 20
729.3718580971042
 30
0.0
 10
717.0851047297579
 20
729.3909346018758
 30
0.0
 10
717.1127271559316
 20
729.3909521028995
 30
0.0
 10
717.1129460866072
 20
729.3909518167257
 30
0.0
  0
SPLINE
  5
9F
330
2
100
AcDbEntity
  8
OUTLINE
  6
CONTINUOUS
100
AcDbSpline
210
0.0
220
0.0
230
1.0
 70
    24
 71
     3
 72
     8
 73
     4
 74
     0
 42
0.0000000001
 43
0.0000000001
 40
0.0
 40
0.0
 40
0.0
 40
0.0
 40
1.0
 40
1.0
 40
1.0
 40
1.0
 10
717.3463381067652
 20
729.2253068730412
 30
0.0
 10
717.3463471326527
 20
729.225294589612
 30
0.0
 10
717.3463561585537
 20
729.2252823061718
 30
0.0
 10
717.3463651844705
 20
729.2252700227209
 30
0.0
  0
SPLINE
  5
A0
330
2
100
AcDbEntity
  8
OUTLINE
  6
CONTINUOUS
100
AcDbSpline
210
0.0
220
0.0
230
1.0
 70
     8
 71
     3
 72
    22
 73
    18
 74
     0
 42
0.0000000001
 43
0.0000000001
 40
0.0
 40
0.0
 40
0.0
 40
0.0
 40
0.0390776498168106
 40
0.0784650136604172
 40
0.1182236549549981
 40
0.1584114281538922
 40
0.1990821800456815
 40
0.2402855246620456
 40
0.2820666878789076
 40
0.4165811711971938
 40
0.5466948700439908
 40
0.6280673536461237
 40
0.7068430210501428
 40
0.7831477220569391
 40
0.8572026682301389
 40
0.9293377184334307
 40
1.0
 40
1.0
 40
1.0
 40
1.0
 10
717.6895829638638
 20
728.8304788059625
 30
0.0
 10
717.6821577842646
 20
728.8453224127322
 30
0.0
 10
717.6672507873814
 20
728.8750922623062
 30
0.0
 10
717.6447554602409
 20
728.9083654085828
 30
0.0
 10
717.6221639330463
 20
728.9332084008313
 30
0.0
 10
717.5995412685862
 20
728.9485677897966
 30
0.0
 10
717.5769674552904
 20
728.9544669557868
 30
0.0
 10
717.5545175802827
 20
728.9506456066549
 30
0.0
 10
717.5159354412459
 20
728.9270203384973
 30
0.0
 10
717.4645714105487
 20
728.8434479530392
 30
0.0
 10
717.4153250921827
 20
728.6661910955326
 30
0.0
 10
717.3820925688711
 20
728.4665703552567
 30
0.0
 10
717.3610175410085
 20
728.2742300905153
 30
0.0
 10
717.3470939092562
 20
728.0629527788015
 30
0.0
 10
717.3407170226728
 20
727.8380229141068
 30
0.0
 10
717.3412450138871
 20
727.6048348601903
 30
0.0
 10
717.3479235023579
 20
727.4457834366102
 30
0.0
 10
717.3512362154475
 20
727.3670770783248
 30
0.0
  0
ELLIPSE
  5
A1
330
2
100
AcDbEntity
  8
OUTLINE
  6
CONTINUOUS
100
AcDbEllipse
 10
716.8657810640434
 20
727.3377833353459
 30
0.0
 11
0.4997138664487848
 21
0.025452729104856
 31
0.0
210
0.0
220
0.0
230
1.0
 40
0.0387478817
 41
0.2374941669702613
 42
2.215582972781488
  0
ELLIPSE
  5
A2
330
2
100
AcDbEntity
  8
OUTLINE
  6
CONTINUOUS
100
AcDbEllipse
 10
716.8781924528682
 20
724.3943367003297
 30
0.0
 11
0.4999068438494194
 21
-0.0213294384915845
 31
0.0
210
0.0
220
0.0
230
0.9999999999999998
 40
0.0858258611
 41
4.066526303382572
 42
6.047901583739993
  0
ELLIPSE
  5
A3
330
2
100
AcDbEntity
  8
OUTLINE
  6
CONTINUOUS
100
AcDbEllipse
 10
717.0751821125718
 20
722.875641305286
 30
0.0
 11
0.2090580121533424
 21
0.4545949126627271
 31
0.0
210
0.0
220
0.0
230
1.0
 40
0.9851777162000001
 41
3.628385661631538
 42
5.013764055998813
  0
ELLIPSE
  5
A4
330
2
100
AcDbEntity
  8
OUTLINE
  6
CONTINUOUS
100
AcDbEllipse
 10
717.3556407403895
 20
722.5343688630678
 30
0.0
 11
-0.4483314582656272
 21
0.2221726594208362
 31
0.0
210
0.0
220
0.0
230
1.0
 40
0.9966213531999999
 41
2.07952974655161
 42
3.137418121870576
  0
ELLIPSE
  5
A5
330
2
100
AcDbEntity
  8
OUTLINE
  6
CONTINUOUS
100
AcDbEllipse
 10
524.7950788680839
 20
770.7832199189846
 30
0.0
 11
0.0
 21
-8.005786500311046
 31
0.0
210
0.0
220
0.0
230
1.0
 40
0.707106781199998
 41
3.141592653589792
 42
6.283185307179585
  0
LINE
  5
A6
330
2
100
AcDbEntity
  8
OUTLINE
  6
CONTINUOUS
100
AcDbLine
 10
532.2754221005848
 20
778.7890064192958
 30
0.0
 11
524.7950788680839
 21
778.7890064192958
 31
0.0
  0
ELLIPSE
  5
A7
330
2
100
AcDbEntity
  8
OUTLINE
  6
CONTINUOUS
100
AcDbEllipse
 10
532.2754221005848
 20
770.7832199189846
 30
0.0
 11
0.0
 21
-8.005786500311046
 31
0.0
210
0.0
220
0.0
230
1.0
 40
0.707106781199998
 41
3.141592653589792
 42
6.283185307179585
  0
LINE
  5
A8
330
2
100
AcDbEntity
  8
OUTLINE
  6
CONTINUOUS
100
AcDbLine
 10
524.7950788680839
 20
762.7774334186737
 30
0.0
 11
532.2754221005848
 21
762.7774334186737
 31
0.0
  0
LINE
  5
A9
330
2
100
AcDbEntity
  8
OUTLINE
  6
CONTINUOUS
100
AcDbLine
 10
537.9397022209172
 20
762.7774334186737
 30
0.0
 11
690.3333986967972
 21
762.7774334186737
 31
0.0
  0
LINE
  5
AA
330
2
100
AcDbEntity
  8
OUTLINE
  6
CONTINUOUS
100
AcDbLine
 10
690.436709532809
 20
762.7774334186737
 30
0.0
 11
704.0488189009453
 21
762.7774334186737
 31
0.0
  0
LINE
  5
AB
330
2
100
AcDbEntity
  8
OUTLINE
  6
CONTINUOUS
100
AcDbLine
 10
690.3333986967972
 20
778.7890064192958
 30
0.0
 11
537.9397022209172
 21
778.7890064192956
 31
0.0
  0
LINE
  5
AC
330
2
100
AcDbEntity
  8
OUTLINE
  6
CONTINUOUS
100
AcDbLine
 10
704.0488189009453
 20
778.7890064192956
 30
0.0
 11
690.436709532809
 21
778.7890064192956
 31
0.0
  0
LINE
  5
AD
330
2
100
AcDbEntity
  8
OUTLINE
  6
CONTINUOUS
100
AcDbLine
 10
537.9397022209173
 20
778.7890064192958
 30
0.0
 11
532.2754221005848
 21
778.7890064192958
 31
0.0
  0
LINE
  5
AE
330
2
100
AcDbEntity
  8
OUTLINE
  6
CONTINUOUS
100
AcDbLine
 10
532.2754221005848
 20
762.7774334186737
 30
0.0
 11
537.9397022209173
 21
762.7774334186737
 31
0.0
  0
ELLIPSE
  5
AF
330
2
100
AcDbEntity
  8
OUTLINE
  6
CONTINUOUS
100
AcDbEllipse
 10
535.6563681946852
 20
770.7832199189846
 30
0.0
 11
0.0
 21
-8.005786500311046
 31
0.0
210
0.0
220
0.0
230
1.0
 40
0.707106781199998
 41
3.141592653589792
 42
6.283185307179585
  0
ELLIPSE
  5
B0
330
2
100
AcDbEntity
  8
OUTLINE
  6
CONTINUOUS
100
AcDbEllipse
 10
532.2754221005848
 20
770.7832199189846
 30
0.0
 11
0.0
 21
-8.005786500311046
 31
0.0
210
0.0
220
0.0
230
1.0
 40
0.707106781199998
 41
3.141592653589792
 42
6.283185307179585
  0
ARC
  5
B1
330
2
100
AcDbEntity
  8
OUTLINE
  6
CONTINUOUS
100
AcDbCircle
 10
704.0488189009453
 20
770.7832199189846
 30
0.0
 40
8.005786500311037
100
AcDbArc
 50
270.0
 51
90.0
  0
ARC
  5
B2
330
2
100
AcDbEntity
  8
OUTLINE
  6
CONTINUOUS
100
AcDbCircle
 10
704.0488189009453
 20
770.7832199189846
 30
0.0
 40
10.90788410667377
100
AcDbArc
 50
270.0
 51
132.7818588668048
  0
ARC
  5
B3
330
2
100
AcDbEntity
  8
OUTLINE
  6
CONTINUOUS
100
AcDbCircle
 10
704.0488189009453
 20
770.7832199189846
 30
0.0
 40
10.90788410667377
100
AcDbArc
 50
227.2181411331995
 51
270.0
  0
ARC
  5
B4
330
2
100
AcDbEntity
  8
OUTLINE
  6
CONTINUOUS
100
AcDbCircle
 10
704.0488189009453
 20
770.7832199189846
 30
0.0
 40
8.005786500311037
100
AcDbArc
 50
270.0
 51
90.0
  0
SPLINE
  5
B5
330
2
100
AcDbEntity
  8
OUTLINE
  6
CONTINUOUS
100
AcDbSpline
210
0.0
220
0.0
230
1.0
 70
     8
 71
     3
 72
    11
 73
     7
 74
     0
 42
0.0000000001
 43
0.0000000001
 40
0.0
 40
0.0
 40
0.0
 40
0.0
 40
0.225918210101563
 40
0.5343159733414366
 40
0.8854656274791915
 40
1.0
 40
1.0
 40
1.0
 40
1.0
 10
686.959020008234
 20
795.5056179068441
 30
0.0
 10
686.9584010923782
 20
795.5073295707766
 30
0.0
 10
686.9488913315755
 20
795.5088991533912
 30
0.0
 10
686.9046905268348
 20
795.50196265652
 30
0.0
 10
686.8490796564807
 20
795.4891705621495
 30
0.0
 10
686.8113818084972
 20
795.4793664991886
 30
0.0
 10
686.8018778917894
 20
795.4768313679849
 30
0.0
  0
POINT
  5
E6
330
2
100
AcDbEntity
  8
0
  6
CONTINUOUS
 62
     5
100
AcDbPoint
 10
704.0488189009453
 20
770.7832199189846
 30
0.0
  0
ENDSEC
  0
SECTION
  2
OBJECTS
  0
DICTIONARY
  5
A
330
0
100
AcDbDictionary
  3
ACAD_COLOR
350
30
  3
ACAD_GROUP
350
2C
  3
ACAD_LAYOUT
350
F
  3
ACAD_MATERIAL
350
2F
  3
ACAD_MLINESTYLE
350
2D
  3
ACAD_PLOTSETTINGS
350
2E
  3
ACAD_PLOTSTYLENAME
350
9
  3
ACAD_TABLESTYLE
350
31
  3
ACDBVARIABLEDICTIONARY
350
B7
  3
ACDBHEADERROUNDTRIPXREC
350
F9
  0
DICTIONARY
  5
3
330
2
100
AcDbDictionary
280
     1
  3
ACAD_LAYOUTSELFREF
360
11A
  3
ACAD_SORTENTS
360
B6
  0
DICTIONARY
  5
12
330
11
100
AcDbDictionary
280
     1
  3
ACAD_LAYOUTSELFREF
360
11B
  0
DICTIONARY
  5
30
102
{ACAD_REACTORS
330
A
102
}
330
A
100
AcDbDictionary
  0
DICTIONARY
  5
2C
102
{ACAD_REACTORS
330
A
102
}
330
A
100
AcDbDictionary
  0
DICTIONARY
  5
F
102
{ACAD_REACTORS
330
A
102
}
330
A
100
AcDbDictionary
  0
DICTIONARY
  5
2F
102
{ACAD_REACTORS
330
A
102
}
330
A
100
AcDbDictionary
  0
DICTIONARY
  5
2D
102
{ACAD_REACTORS
330
A
102
}
330
A
100
AcDbDictionary
  3
STANDARD
350
32
  0
DICTIONARY
  5
2E
102
{ACAD_REACTORS
330
A
102
}
330
A
100
AcDbDictionary
  0
ACDBDICTIONARYWDFLT
  5
9
102
{ACAD_REACTORS
330
A
102
}
330
A
100
AcDbDictionary
281
     1
  3
Normal
350
8
100
AcDbDictionaryWithDefault
340
8
1001
ACAD
1000
TREAT_AS_HARD
1070
     0
  0
DICTIONARY
  5
31
102
{ACAD_REACTORS
330
A
102
}
330
A
100
AcDbDictionary
  3
STANDARD
350
33
  0
DICTIONARY
  5
B7
102
{ACAD_REACTORS
330
A
102
}
330
A
100
AcDbDictionary
  3
CTABLESTYLE
350
B8
  3
DIMASSOC
350
D0
  3
HIDETEXT
350
CF
  3
PROJECTNAME
350
D1
  0
DICTIONARY
  5
F9
102
{ACAD_REACTORS
330
A
102
}
330
A
100
AcDbDictionary
  3
TSTACKALIGN
350
FA
  3
TSTACKSIZE
350
FB
  3
HYPERLINKBASE
350
FC
  3
STYLESHEET
350
FD
  3
LAYOUTDICT
350
FE
  3
PLOTSETDICT
350
FF
  3
PLOTSTYLNAMDICT
350
100
  3
LWETCUNION
350
101
  3
INSUNITS
350
102
  3
CEPSNTYPE
350
103
  3
FINGERPRINTGUID
350
104
  3
VERSIONGUID
350
105
  3
PSVPSCALE
350
106
  3
DIMSTYLEDATA
350
107
  3
PUCSORTHOREF
350
108
  3
PUCSORTHOVIEW
350
109
  3
PUCSBASE
350
10A
  3
PUCSORGTOP
350
10B
  3
PUCSORGBOTTOM
350
10C
  3
PUCSORGLEFT
350
10D
  3
PUCSORGRIGHT
350
10E
  3
PUCSORGFRONT
350
10F
  3
PUCSORGBACK
350
110
  3
UCSORTHOREF
350
111
  3
UCSORTHOVIEW
350
112
  3
UCSBASE
350
113
  3
UCSORGTOP
350
114
  3
UCSORGBOTTOM
350
115
  3
UCSORGLEFT
350
116
  3
UCSORGRIGHT
350
117
  3
UCSORGFRONT
350
118
  3
UCSORGBACK
350
119
  0
XRECORD
  5
11A
102
{ACAD_REACTORS
330
3
102
}
330
3
100
AcDbXrecord
340
2
  0
SORTENTSTABLE
  5
B6
102
{ACAD_REACTORS
330
3
102
}
330
3
100
AcDbSortentsTable
330
2
  0
XRECORD
  5
11B
102
{ACAD_REACTORS
330
12
102
}
330
12
100
AcDbXrecord
340
11
  0
MLINESTYLE
  5
32
102
{ACAD_REACTORS
330
2D
102
}
330
2D
100
AcDbMlineStyle
  2
STANDARD
 70
     0
  3

 62
   256
 51
90.0
 52
90.0
 71
     2
 49
0.5
 62
   256
  6
BYLAYER
 49
-0.5
 62
   256
  6
BYLAYER
  0
ACDBPLACEHOLDER
  5
8
102
{ACAD_REACTORS
330
9
102
}
330
9
100
AcDbPlaceHolder
280
     0
  0
ACAD_PROXY_OBJECT
  5
33
102
{ACAD_REACTORS
330
31
102
}
330
31
100
AcDbProxyObject
 90
      499
 91
      506
 93
     1841
310
4214DD185B99185C9928B81E85EB51B8AE3F2E07A17AD46E2B8FC02B5E8DC0F42B1CFD028000000C1008070000C3001FDFF8000000C1003FBFF000000182007F7FE00000030400FEFFC00000060801FDFF8000000C1003FBFF00000018200000000000000681FA0B0000001820100E000186003FBFF000000182007F7FE000
310
00030400FEFFC00000060801FDFF8000000C1003FBFF000000182007F7FE000000304000AD7A3703D0AC73F4160000003040201C00030C007F7FE00000030400FEFFC00000060801FDFF8000000C1003FBFF000000182007F7FE00000030400FEFFC000000608000
340
19
340
19
340
19
 94
        0
1001
ACAD
1000
AcadProxyRoundTripData
1071
      504
1071
   393239
1070
     0
  0
DICTIONARYVAR
  5
B8
102
{ACAD_REACTORS
330
B7
102
}
330
B7
100
DictionaryVariables
280
     0
  1
STANDARD
  0
DICTIONARYVAR
  5
D0
102
{ACAD_REACTORS
330
B7
102
}
330
B7
100
DictionaryVariables
280
     0
  1
1
  0
DICTIONARYVAR
  5
CF
102
{ACAD_REACTORS
330
B7
102
}
330
B7
100
DictionaryVariables
280
     0
  1
1
  0
DICTIONARYVAR
  5
D1
102
{ACAD_REACTORS
330
B7
102
}
330
B7
100
DictionaryVariables
280
     0
  1

  0
XRECORD
  5
FA
102
{ACAD_REACTORS
330
F9
102
}
330
F9
100
AcDbXrecord
 90
        1
  0
XRECORD
  5
FB
102
{ACAD_REACTORS
330
F9
102
}
330
F9
100
AcDbXrecord
 90
       70
  0
XRECORD
  5
FC
102
{ACAD_REACTORS
330
F9
102
}
330
F9
100
AcDbXrecord
  1

  0
XRECORD
  5
FD
102
{ACAD_REACTORS
330
F9
102
}
330
F9
100
AcDbXrecord
  1

  0
XRECORD
  5
FE
102
{ACAD_REACTORS
330
F9
102
}
330
F9
100
AcDbXrecord
340
F
  0
XRECORD
  5
FF
102
{ACAD_REACTORS
330
F9
102
}
330
F9
100
AcDbXrecord
340
2E
  0
XRECORD
  5
100
102
{ACAD_REACTORS
330
F9
102
}
330
F9
100
AcDbXrecord
340
9
  0
XRECORD
  5
101
102
{ACAD_REACTORS
330
F9
102
}
330
F9
100
AcDbXrecord
 90
    10781
  0
XRECORD
  5
102
102
{ACAD_REACTORS
330
F9
102
}
330
F9
100
AcDbXrecord
 90
        0
  0
XRECORD
  5
103
102
{ACAD_REACTORS
330
F9
102
}
330
F9
100
AcDbXrecord
 90
        0
  0
XRECORD
  5
104
102
{ACAD_REACTORS
330
F9
102
}
330
F9
100
AcDbXrecord
  1
{2251AD5D-1D36-4BF8-A015-66D93998EAA2}
  0
XRECORD
  5
105
102
{ACAD_REACTORS
330
F9
102
}
330
F9
100
AcDbXrecord
  1
{41B07FA2-DD98-4D24-9BA1-7B4E46BE93E8}
  0
XRECORD
  5
106
102
{ACAD_REACTORS
330
F9
102
}
330
F9
100
AcDbXrecord
 40
0.0
  0
XRECORD
  5
107
102
{ACAD_REACTORS
330
F9
102
}
330
F9
100
AcDbXrecord
1000
DSTYLE
1002
{
1070
    79
 70
     2
1070
   179
 70
     1
1070
   341
340
25
1070
   342
340
25
1002
}
  0
XRECORD
  5
108
102
{ACAD_REACTORS
330
F9
102
}
330
F9
100
AcDbXrecord
340
0
  0
XRECORD
  5
109
102
{ACAD_REACTORS
330
F9
102
}
330
F9
100
AcDbXrecord
 70
     0
  0
XRECORD
  5
10A
102
{ACAD_REACTORS
330
F9
102
}
330
F9
100
AcDbXrecord
340
0
  0
XRECORD
  5
10B
102
{ACAD_REACTORS
330
F9
102
}
330
F9
100
AcDbXrecord
 10
0.0
 20
0.0
 30
0.0
  0
XRECORD
  5
10C
102
{ACAD_REACTORS
330
F9
102
}
330
F9
100
AcDbXrecord
 10
0.0
 20
0.0
 30
0.0
  0
XRECORD
  5
10D
102
{ACAD_REACTORS
330
F9
102
}
330
F9
100
AcDbXrecord
 10
0.0
 20
0.0
 30
0.0
  0
XRECORD
  5
10E
102
{ACAD_REACTORS
330
F9
102
}
330
F9
100
AcDbXrecord
 10
0.0
 20
0.0
 30
0.0
  0
XRECORD
  5
10F
102
{ACAD_REACTORS
330
F9
102
}
330
F9
100
AcDbXrecord
 10
0.0
 20
0.0
 30
0.0
  0
XRECORD
  5
110
102
{ACAD_REACTORS
330
F9
102
}
330
F9
100
AcDbXrecord
 10
0.0
 20
0.0
 30
0.0
  0
XRECORD
  5
111
102
{ACAD_REACTORS
330
F9
102
}
330
F9
100
AcDbXrecord
340
0
  0
XRECORD
  5
112
102
{ACAD_REACTORS
330
F9
102
}
330
F9
100
AcDbXrecord
 70
     0
  0
XRECORD
  5
113
102
{ACAD_REACTORS
330
F9
102
}
330
F9
100
AcDbXrecord
340
0
  0
XRECORD
  5
114
102
{ACAD_REACTORS
330
F9
102
}
330
F9
100
AcDbXrecord
 10
0.0
 20
0.0
 30
0.0
  0
XRECORD
  5
115
102
{ACAD_REACTORS
330
F9
102
}
330
F9
100
AcDbXrecord
 10
0.0
 20
0.0
 30
0.0
  0
XRECORD
  5
116
102
{ACAD_REACTORS
330
F9
102
}
330
F9
100
AcDbXrecord
 10
0.0
 20
0.0
 30
0.0
  0
XRECORD
  5
117
102
{ACAD_REACTORS
330
F9
102
}
330
F9
100
AcDbXrecord
 10
0.0
 20
0.0
 30
0.0
  0
XRECORD
  5
118
102
{ACAD_REACTORS
330
F9
102
}
330
F9
100
AcDbXrecord
 10
0.0
 20
0.0
 30
0.0
  0
XRECORD
  5
119
102
{ACAD_REACTORS
330
F9
102
}
330
F9
100
AcDbXrecord
 10
0.0
 20
0.0
 30
0.0
  0
ENDSEC
  0
EOF
