  0
SECTION
  2
HEADER
  9
$ACADVER
  1
AC1012
  9
$DWGCODEPAGE
  3
dos932
  9
$INSBASE
 10
385.3228131865318
 20
130.4199967838272
 30
0.0
  9
$EXTMIN
 10
189.2558005182722
 20
123.157838440451
 30
-0.0015258207003583
  9
$EXTMAX
 10
417.8693099371962
 20
426.6565258464035
 30
0.0000000349246037
  9
$LIMMIN
 10
0.0
 20
0.0
  9
$LIMMAX
 10
841.0
 20
594.0
  9
$ORTHOMODE
 70
     1
  9
$REGENMODE
 70
     1
  9
$FILLMODE
 70
     1
  9
$QTEXTMODE
 70
     0
  9
$MIRRTEXT
 70
     0
  9
$DRAGMODE
 70
     2
  9
$LTSCALE
 40
0.3
  9
$OSMODE
 70
    55
  9
$ATTMODE
 70
     1
  9
$TEXTSIZE
 40
0.2
  9
$TRACEWID
 40
0.05
  9
$TEXTSTYLE
  7
STANDARD
  9
$CLAYER
  8
0
  9
$CELTYPE
  6
BYLAYER
  9
$CECOLOR
 62
   256
  9
$CELTSCALE
 40
1.0
  9
$DELOBJ
 70
     1
  9
$DISPSILH
 70
     0
  9
$DIMSCALE
 40
2.0
  9
$DIMASZ
 40
2.0
  9
$DIMEXO
 40
2.0
  9
$DIMDLI
 40
8.0
  9
$DIMRND
 40
0.0
  9
$DIMDLE
 40
0.0
  9
$DIMEXE
 40
0.5
  9
$DIMTP
 40
0.0
  9
$DIMTM
 40
0.0
  9
$DIMTXT
 40
2.0
  9
$DIMCEN
 40
0.09
  9
$DIMTSZ
 40
0.0
  9
$DIMTOL
 70
     0
  9
$DIMLIM
 70
     0
  9
$DIMTIH
 70
     0
  9
$DIMTOH
 70
     0
  9
$DIMSE1
 70
     0
  9
$DIMSE2
 70
     0
  9
$DIMTAD
 70
     1
  9
$DIMZIN
 70
     9
  9
$DIMBLK
  1
OPEN
  9
$DIMASO
 70
     1
  9
$DIMSHO
 70
     1
  9
$DIMPOST
  1

  9
$DIMAPOST
  1

  9
$DIMALT
 70
     0
  9
$DIMALTD
 70
     2
  9
$DIMALTF
 40
25.4
  9
$DIMLFAC
 40
1.0
  9
$DIMTOFL
 70
     1
  9
$DIMTVP
 40
0.0
  9
$DIMTIX
 70
     0
  9
$DIMSOXD
 70
     0
  9
$DIMSAH
 70
     0
  9
$DIMBLK1
  1

  9
$DIMBLK2
  1

  9
$DIMSTYLE
  2
STANDARD
  9
$DIMCLRD
 70
     0
  9
$DIMCLRE
 70
     0
  9
$DIMCLRT
 70
     0
  9
$DIMTFAC
 40
1.0
  9
$DIMGAP
 40
0.5
  9
$DIMJUST
 70
     0
  9
$DIMSD1
 70
     0
  9
$DIMSD2
 70
     0
  9
$DIMTOLJ
 70
     1
  9
$DIMTZIN
 70
     0
  9
$DIMALTZ
 70
     0
  9
$DIMALTTZ
 70
     0
  9
$DIMFIT
 70
     3
  9
$DIMUPT
 70
     0
  9
$DIMUNIT
 70
     2
  9
$DIMDEC
 70
     1
  9
$DIMTDEC
 70
     1
  9
$DIMALTU
 70
     2
  9
$DIMALTTD
 70
     2
  9
$DIMTXSTY
  7
STANDARD
  9
$DIMAUNIT
 70
     0
  9
$LUNITS
 70
     2
  9
$LUPREC
 70
     4
  9
$SKETCHINC
 40
0.1
  9
$FILLETRAD
 40
0.5
  9
$AUNITS
 70
     0
  9
$AUPREC
 70
     0
  9
$MENU
  1
ACAD
  9
$ELEVATION
 40
0.0
  9
$PELEVATION
 40
0.0
  9
$THICKNESS
 40
0.0
  9
$LIMCHECK
 70
     0
  9
$BLIPMODE
 70
     0
  9
$CHAMFERA
 40
0.3
  9
$CHAMFERB
 40
0.3
  9
$CHAMFERC
 40
0.0
  9
$CHAMFERD
 40
0.0
  9
$SKPOLY
 70
     0
  9
$TDCREATE
 40
2311949.162056007
  9
$TDUPDATE
 40
2453452.994907766
  9
$TDINDWG
 40
0.3978255208
  9
$TDUSRTIMER
 40
0.3978251620
  9
$USRTIMER
 70
     1
  9
$ANGBASE
 50
0.0
  9
$ANGDIR
 70
     0
  9
$PDMODE
 70
     3
  9
$PDSIZE
 40
0.0
  9
$PLINEWID
 40
0.0
  9
$COORDS
 70
     1
  9
$SPLFRAME
 70
     0
  9
$SPLINETYPE
 70
     6
  9
$SPLINESEGS
 70
     8
  9
$ATTDIA
 70
     0
  9
$ATTREQ
 70
     1
  9
$HANDLING
 70
 10241
  9
$HANDSEED
  5
B5
  9
$SURFTAB1
 70
     6
  9
$SURFTAB2
 70
     6
  9
$SURFTYPE
 70
     6
  9
$SURFU
 70
     6
  9
$SURFV
 70
     6
  9
$UCSNAME
  2

  9
$UCSORG
 10
0.0
 20
0.0
 30
0.0
  9
$UCSXDIR
 10
1.0
 20
0.0
 30
0.0
  9
$UCSYDIR
 10
0.0
 20
1.0
 30
0.0
  9
$PUCSNAME
  2

  9
$PUCSORG
 10
0.0
 20
0.0
 30
0.0
  9
$PUCSXDIR
 10
1.0
 20
0.0
 30
0.0
  9
$PUCSYDIR
 10
0.0
 20
1.0
 30
0.0
  9
$USERI1
 70
     0
  9
$USERI2
 70
     0
  9
$USERI3
 70
     0
  9
$USERI4
 70
     0
  9
$USERI5
 70
     0
  9
$USERR1
 40
0.0
  9
$USERR2
 40
0.0
  9
$USERR3
 40
0.0
  9
$USERR4
 40
0.0
  9
$USERR5
 40
0.0
  9
$WORLDVIEW
 70
     1
  9
$SHADEDGE
 70
     3
  9
$SHADEDIF
 70
    70
  9
$TILEMODE
 70
     1
  9
$MAXACTVP
 70
    64
  9
$PINSBASE
 10
0.0
 20
0.0
 30
0.0
  9
$PLIMCHECK
 70
     0
  9
$PEXTMIN
 10
1.000000000000000E+20
 20
1.000000000000000E+20
 30
1.000000000000000E+20
  9
$PEXTMAX
 10
-1.000000000000000E+20
 20
-1.000000000000000E+20
 30
-1.000000000000000E+20
  9
$PLIMMIN
 10
0.0
 20
0.0
  9
$PLIMMAX
 10
12.0
 20
9.0
  9
$UNITMODE
 70
     0
  9
$VISRETAIN
 70
     1
  9
$PLINEGEN
 70
     0
  9
$PSLTSCALE
 70
     1
  9
$TREEDEPTH
 70
  3020
  9
$PICKSTYLE
 70
     1
  9
$CMLSTYLE
  2
STANDARD
  9
$CMLJUST
 70
     0
  9
$CMLSCALE
 40
1.0
  9
$SAVEIMAGES
 70
     1
  0
ENDSEC
  0
SECTION
  2
CLASSES
  0
CLASS
  1
ACDBDICTIONARYWDFLT
  2
AcDbDictionaryWithDefault
  3
AutoCAD 2000
 90
    32768
280
     0
281
     0
  0
CLASS
  1
ACDBPLACEHOLDER
  2
AcDbPlaceHolder
  3
AutoCAD 2000
 90
    32768
280
     0
281
     0
  0
CLASS
  1
LAYOUT
  2
AcDbLayout
  3
AutoCAD 2000
 90
    32768
280
     0
281
     0
  0
CLASS
  1
DICTIONARYVAR
  2
AcDbDictionaryVar
  3
AutoCAD 2000
 90
    32768
280
     0
281
     0
  0
CLASS
  1
TABLESTYLE
  2
AcDbTableStyle
  3
ObjectDBX Classes
 90
    34815
280
     1
281
     0
  0
CLASS
  1
SORTENTSTABLE
  2
AcDbSortentsTable
  3
AutoCAD 2000
 90
    32768
280
     0
281
     0
  0
CLASS
  1
LONG_TRANSACTION
  2
AcDbLongTransaction
  3
AutoCAD 2000
 90
    32768
280
     0
281
     0
  0
CLASS
  1
LWPOLYLINE
  2
AcDbPolyline
  3
AutoCAD 2000
 90
    32768
280
     0
281
     1
  0
CLASS
  1
HATCH
  2
AcDbHatch
  3
AutoCAD 2000
 90
    32768
280
     0
281
     1
  0
CLASS
  1
XRECORD
  2
AcDbXrecord
  3
AutoCAD 2000
 90
    32768
280
     0
281
     0
  0
ENDSEC
  0
SECTION
  2
TABLES
  0
TABLE
  2
VPORT
  5
20
330
0
100
AcDbSymbolTable
 70
     3
  0
VPORT
  5
9B
330
20
100
AcDbSymbolTableRecord
100
AcDbViewportTableRecord
  2
*ACTIVE
 70
     0
 10
0.0
 20
0.0
 11
1.0
 21
1.0
 12
303.5625552277342
 22
274.9071821434273
 13
0.0
 23
0.0
 14
1.0
 24
1.0
 15
0.0
 25
0.0
 16
0.0
 26
0.0
 36
1.0
 17
0.0
 27
0.0
 37
0.0
 40
307.1406716548239
 41
1.899799599198396
 42
50.0
 43
0.0
 44
0.0
 50
0.0
 51
0.0
 71
     0
 72
   100
 73
     1
 74
     1
 75
     0
 76
     0
 77
     0
 78
     0
  0
ENDTAB
  0
TABLE
  2
LTYPE
  5
1B
330
0
100
AcDbSymbolTable
 70
     2
  0
LTYPE
  5
1C
330
1B
100
AcDbSymbolTableRecord
100
AcDbLinetypeTableRecord
  2
BYBLOCK
 70
     0
  3

 72
    65
 73
     0
 40
0.0
  0
LTYPE
  5
1D
330
1B
100
AcDbSymbolTableRecord
100
AcDbLinetypeTableRecord
  2
BYLAYER
 70
     0
  3

 72
    65
 73
     0
 40
0.0
  0
LTYPE
  5
A
330
1B
100
AcDbSymbolTableRecord
100
AcDbLinetypeTableRecord
  2
CONTINUOUS
 70
     0
  3
Solid line
 72
    65
 73
     0
 40
0.0
  0
LTYPE
  5
55
330
1B
100
AcDbSymbolTableRecord
100
AcDbLinetypeTableRecord
  2
DASHDOT
 70
     0
  3
Dash dot __ . __ . __ . __ . __ . __ . __ . __
 72
    65
 73
     4
 40
25.4
 49
12.7
 74
     0
 49
-6.349999999999999
 74
     0
 49
0.0
 74
     0
 49
-6.349999999999999
 74
     0
  0
ENDTAB
  0
TABLE
  2
LAYER
  5
17
330
0
100
AcDbSymbolTable
 70
     3
  0
LAYER
  5
6
330
17
100
AcDbSymbolTableRecord
100
AcDbLayerTableRecord
  2
0
 70
     0
 62
     7
  6
CONTINUOUS
  0
LAYER
  5
32
330
17
100
AcDbSymbolTableRecord
100
AcDbLayerTableRecord
  2
2
 70
     0
 62
     7
  6
CONTINUOUS
  0
LAYER
  5
54
330
17
100
AcDbSymbolTableRecord
100
AcDbLayerTableRecord
  2
4
 70
     0
 62
     6
  6
DASHDOT
  0
ENDTAB
  0
TABLE
  2
STYLE
  5
18
330
0
100
AcDbSymbolTable
 70
     1
  0
STYLE
  5
19
330
18
100
AcDbSymbolTableRecord
100
AcDbTextStyleTableRecord
  2
STANDARD
 70
     0
 40
0.0
 41
1.0
 50
0.0
 71
     0
 42
0.2
  3
romans.shx
  4
BIGFONT.shx
  0
ENDTAB
  0
TABLE
  2
VIEW
  5
1E
330
0
100
AcDbSymbolTable
 70
     0
  0
ENDTAB
  0
TABLE
  2
UCS
  5
1F
330
0
100
AcDbSymbolTable
 70
     0
  0
ENDTAB
  0
TABLE
  2
APPID
  5
22
330
0
100
AcDbSymbolTable
 70
     2
  0
APPID
  5
23
330
22
100
AcDbSymbolTableRecord
100
AcDbRegAppTableRecord
  2
ACAD
 70
     0
  0
APPID
  5
10
330
22
100
AcDbSymbolTableRecord
100
AcDbRegAppTableRecord
  2
ACAD_PSEXT
 70
     0
  0
ENDTAB
  0
TABLE
  2
DIMSTYLE
  5
24
330
0
100
AcDbSymbolTable
 70
     1
  0
DIMSTYLE
105
25
330
24
100
AcDbSymbolTableRecord
100
AcDbDimStyleTableRecord
  2
STANDARD
 70
     0
  3

  4

  5
OPEN
  6

  7

 40
2.0
 41
2.0
 42
2.0
 43
8.0
 44
0.5
 45
0.0
 46
0.0
 47
0.0
 48
0.0
140
2.0
141
0.09
142
0.0
143
25.4
144
1.0
145
0.0
146
1.0
147
0.5
 71
     0
 72
     0
 73
     0
 74
     0
 75
     0
 76
     0
 77
     1
 78
     9
170
     0
171
     2
172
     1
173
     0
174
     0
175
     0
176
     0
177
     0
178
     0
270
     2
271
     1
272
     1
273
     2
274
     2
340
19
275
     0
280
     0
281
     0
282
     0
283
     1
284
     0
285
     0
286
     0
287
     3
288
     0
  0
ENDTAB
  0
TABLE
  2
BLOCK_RECORD
  5
1
330
0
100
AcDbSymbolTable
 70
     1
  0
BLOCK_RECORD
  5
2
102
{ACAD_XDICTIONARY
360
3
102
}
330
1
100
AcDbSymbolTableRecord
100
AcDbBlockTableRecord
  2
*MODEL_SPACE
  0
BLOCK_RECORD
  5
11
102
{ACAD_XDICTIONARY
360
9D
102
}
330
1
100
AcDbSymbolTableRecord
100
AcDbBlockTableRecord
  2
*PAPER_SPACE
  0
BLOCK_RECORD
  5
26
330
1
100
AcDbSymbolTableRecord
100
AcDbBlockTableRecord
  2
_OPEN
  0
ENDTAB
  0
ENDSEC
  0
SECTION
  2
BLOCKS
  0
BLOCK
  5
5
330
2
100
AcDbEntity
  8
0
100
AcDbBlockBegin
  2
*MODEL_SPACE
 70
     0
 10
0.0
 20
0.0
 30
0.0
  3
*MODEL_SPACE
  1

  0
ENDBLK
  5
B
330
2
100
AcDbEntity
  8
0
100
AcDbBlockEnd
  0
BLOCK
  5
12
330
11
100
AcDbEntity
 67
     1
  8
0
100
AcDbBlockBegin
  2
*PAPER_SPACE
 70
     0
 10
0.0
 20
0.0
 30
0.0
  3
*PAPER_SPACE
  1

  0
ENDBLK
  5
13
330
11
100
AcDbEntity
 67
     1
  8
0
100
AcDbBlockEnd
  0
BLOCK
  5
2A
330
26
100
AcDbEntity
  8
0
100
AcDbBlockBegin
  2
_OPEN
 70
     0
 10
0.0
 20
0.0
 30
0.0
  3
_OPEN
  1

  0
LINE
  5
27
330
26
100
AcDbEntity
  8
0
 62
     0
100
AcDbLine
 10
-0.9659259999999999
 20
0.258819
 30
0.0
 11
0.0
 21
0.0
 31
0.0
  0
LINE
  5
28
330
26
100
AcDbEntity
  8
0
 62
     0
100
AcDbLine
 10
0.0
 20
0.0
 30
0.0
 11
-0.9659259999999999
 21
-0.258819
 31
0.0
  0
LINE
  5
29
330
26
100
AcDbEntity
  8
0
 62
     0
100
AcDbLine
 10
0.0
 20
0.0
 30
0.0
 11
-1.0
 21
0.0
 31
0.0
  0
ENDBLK
  5
2B
330
26
100
AcDbEntity
  8
0
100
AcDbBlockEnd
  0
ENDSEC
  0
SECTION
  2
ENTITIES
  0
LINE
  5
31
330
2
100
AcDbEntity
  8
2
100
AcDbLine
 10
362.3228131865319
 20
136.9699967838273
 30
0.0
 11
362.3228131865319
 21
133.7199967838273
 31
0.0
  0
LINE
  5
33
330
2
100
AcDbEntity
  8
2
100
AcDbLine
 10
362.3228131865319
 20
153.2610007838272
 30
0.0
 11
362.3228131865319
 21
146.4699967838273
 31
0.0
  0
LINE
  5
34
330
2
100
AcDbEntity
  8
2
100
AcDbLine
 10
366.2711241865317
 20
217.7199967838272
 30
0.0
 11
404.5201281865318
 21
217.7199967838272
 31
0.0
  0
LINE
  5
35
330
2
100
AcDbEntity
  8
2
100
AcDbLine
 10
408.3228131865317
 20
190.7199967838272
 30
0.0
 11
408.3228131865317
 21
133.7199967838273
 31
0.0
  0
LINE
  5
36
330
2
100
AcDbEntity
  8
2
100
AcDbLine
 10
362.8228131865319
 20
133.2199967838272
 30
0.0
 11
407.8228131865317
 21
133.2199967838272
 31
0.0
  0
LINE
  5
37
330
2
100
AcDbEntity
  8
2
100
AcDbLine
 10
362.3228131865319
 20
133.7199967838273
 30
0.0
 11
362.8228131865319
 21
133.2199967838272
 31
0.0
  0
LINE
  5
38
330
2
100
AcDbEntity
  8
2
100
AcDbLine
 10
408.3228131865317
 20
133.7199967838273
 30
0.0
 11
407.8228131865317
 21
133.2199967838272
 31
0.0
  0
LINE
  5
39
330
2
100
AcDbEntity
  8
2
100
AcDbLine
 10
372.3228131865319
 20
217.7199967838272
 30
0.0
 11
372.3228131865319
 21
218.2199967838272
 31
0.0
  0
LINE
  5
3A
330
2
100
AcDbEntity
  8
2
100
AcDbLine
 10
398.3228131865318
 20
217.7199967838272
 30
0.0
 11
398.3228131865318
 21
218.2199967838272
 31
0.0
  0
LINE
  5
3B
330
2
100
AcDbEntity
  8
2
100
AcDbLine
 10
365.2725311865317
 20
216.7730197838273
 30
0.0
 11
364.698612524608
 21
205.9642275772359
 31
0.0
  0
LINE
  5
3C
330
2
100
AcDbEntity
  8
2
100
AcDbLine
 10
364.1550051110779
 20
195.7262937061605
 30
0.0
 11
362.7448201865318
 21
169.1677967838272
 31
0.0
  0
LINE
  5
3D
330
2
100
AcDbEntity
  8
2
100
AcDbLine
 10
362.8228131865319
 20
133.2199967838272
 30
0.0
 11
366.3728131865318
 21
133.2199967838272
 31
0.0
  0
ARC
  5
3E
330
2
100
AcDbEntity
  8
2
100
AcDbCircle
 10
285.3228131865317
 20
190.7199967838272
 30
0.0
 40
123.0
100
AcDbArc
 50
0.0000000000001589
 51
12.30494799999999
  0
ARC
  5
3F
330
2
100
AcDbEntity
  8
2
100
AcDbCircle
 10
404.5201281865318
 20
216.7199967838273
 30
0.0
 40
1.0
100
AcDbArc
 50
12.30494799999999
 51
90.0
  0
ARC
  5
40
330
2
100
AcDbEntity
  8
2
100
AcDbCircle
 10
366.2711241865317
 20
216.7199967838273
 30
0.0
 40
1.0
100
AcDbArc
 50
90.0
 51
176.9606
  0
ARC
  5
41
330
2
100
AcDbEntity
  8
2
100
AcDbCircle
 10
662.3228131865317
 20
153.2610007838272
 30
0.0
 40
300.0
100
AcDbArc
 50
176.9606
 51
180.0
  0
POLYLINE
  5
42
330
2
100
AcDbEntity
  8
2
100
AcDb2dPolyline
 66
     1
 10
0.0
 20
0.0
 30
0.0
  0
VERTEX
  5
9F
330
42
100
AcDbEntity
  8
2
100
AcDbVertex
100
AcDb2dVertex
 10
362.3228131865318
 20
136.9699967838273
 30
0.0
  0
VERTEX
  5
A0
330
42
100
AcDbEntity
  8
2
100
AcDbVertex
100
AcDb2dVertex
 10
362.4089131865318
 20
137.0421597838272
 30
0.0
  0
VERTEX
  5
A1
330
42
100
AcDbEntity
  8
2
100
AcDbVertex
100
AcDb2dVertex
 10
362.4923981865317
 20
137.2564567838272
 30
0.0
  0
VERTEX
  5
A2
330
42
100
AcDbEntity
  8
2
100
AcDbVertex
100
AcDb2dVertex
 10
362.5707291865318
 20
137.6063757838273
 30
0.0
  0
VERTEX
  5
A3
330
42
100
AcDbEntity
  8
2
100
AcDbVertex
100
AcDb2dVertex
 10
362.6415281865317
 20
138.0812857838273
 30
0.0
  0
VERTEX
  5
A4
330
42
100
AcDbEntity
  8
2
100
AcDbVertex
100
AcDb2dVertex
 10
362.7026431865318
 20
138.6667557838272
 30
0.0
  0
VERTEX
  5
A5
330
42
100
AcDbEntity
  8
2
100
AcDbVertex
100
AcDb2dVertex
 10
362.7522171865318
 20
139.3449967838273
 30
0.0
  0
VERTEX
  5
A6
330
42
100
AcDbEntity
  8
2
100
AcDbVertex
100
AcDb2dVertex
 10
362.7887441865317
 20
140.0954007838272
 30
0.0
  0
VERTEX
  5
A7
330
42
100
AcDbEntity
  8
2
100
AcDbVertex
100
AcDb2dVertex
 10
362.8111131865318
 20
140.8951677838273
 30
0.0
  0
VERTEX
  5
A8
330
42
100
AcDbEntity
  8
2
100
AcDbVertex
100
AcDb2dVertex
 10
362.8186461865318
 20
141.7199967838272
 30
0.0
  0
SEQEND
  5
A9
330
42
100
AcDbEntity
  8
2
  0
POLYLINE
  5
43
330
2
100
AcDbEntity
  8
2
100
AcDb2dPolyline
 66
     1
 10
0.0
 20
0.0
 30
0.0
  0
VERTEX
  5
AA
330
43
100
AcDbEntity
  8
2
100
AcDbVertex
100
AcDb2dVertex
 10
362.8186461865318
 20
141.7199967838272
 30
0.0
  0
VERTEX
  5
AB
330
43
100
AcDbEntity
  8
2
100
AcDbVertex
100
AcDb2dVertex
 10
362.8111131865318
 20
142.5448257838273
 30
0.0
  0
VERTEX
  5
AC
330
43
100
AcDbEntity
  8
2
100
AcDbVertex
100
AcDb2dVertex
 10
362.7887441865317
 20
143.3445927838272
 30
0.0
  0
VERTEX
  5
AD
330
43
100
AcDbEntity
  8
2
100
AcDbVertex
100
AcDb2dVertex
 10
362.7522171865318
 20
144.0949967838273
 30
0.0
  0
VERTEX
  5
AE
330
43
100
AcDbEntity
  8
2
100
AcDbVertex
100
AcDb2dVertex
 10
362.7026431865318
 20
144.7732377838273
 30
0.0
  0
VERTEX
  5
AF
330
43
100
AcDbEntity
  8
2
100
AcDbVertex
100
AcDb2dVertex
 10
362.6415281865317
 20
145.3587077838273
 30
0.0
  0
VERTEX
  5
B0
330
43
100
AcDbEntity
  8
2
100
AcDbVertex
100
AcDb2dVertex
 10
362.5707291865318
 20
145.8336177838272
 30
0.0
  0
VERTEX
  5
B1
330
43
100
AcDbEntity
  8
2
100
AcDbVertex
100
AcDb2dVertex
 10
362.4923981865317
 20
146.1835367838272
 30
0.0
  0
VERTEX
  5
B2
330
43
100
AcDbEntity
  8
2
100
AcDbVertex
100
AcDb2dVertex
 10
362.4089131865318
 20
146.3978337838273
 30
0.0
  0
VERTEX
  5
B3
330
43
100
AcDbEntity
  8
2
100
AcDbVertex
100
AcDb2dVertex
 10
362.3228131865318
 20
146.4699967838273
 30
0.0
  0
SEQEND
  5
B4
330
43
100
AcDbEntity
  8
2
  0
LINE
  5
44
330
2
100
AcDbEntity
  8
2
100
AcDbLine
 10
362.8228131865319
 20
130.7199967838273
 30
0.0
 11
362.8228131865319
 21
130.4199967838272
 31
0.0
  0
LINE
  5
45
330
2
100
AcDbEntity
  8
2
100
AcDbLine
 10
362.8228131865319
 20
130.4199967838272
 30
0.0
 11
407.8228131865317
 21
130.4199967838272
 31
0.0
  0
LINE
  5
46
330
2
100
AcDbEntity
  8
2
100
AcDbLine
 10
407.8228131865317
 20
130.4199967838272
 30
0.0
 11
407.8228131865317
 21
130.7199967838273
 31
0.0
  0
LINE
  5
47
330
2
100
AcDbEntity
  8
2
100
AcDbLine
 10
407.8228131865317
 20
130.7199967838273
 30
0.0
 11
362.8228131865319
 21
130.7199967838273
 31
0.0
  0
LINE
  5
48
330
2
100
AcDbEntity
  8
2
100
AcDbLine
 10
384.8228131865319
 20
195.6878237838273
 30
0.0
 11
385.8228131865319
 21
195.6878237838273
 31
0.0
  0
LINE
  5
49
330
2
100
AcDbEntity
  8
2
100
AcDbLine
 10
385.8228131865319
 20
195.6878237838273
 30
0.0
 11
385.8228131865319
 21
185.1521697838273
 31
0.0
  0
LINE
  5
4A
330
2
100
AcDbEntity
  8
2
100
AcDbLine
 10
385.8228131865319
 20
185.1521697838273
 30
0.0
 11
384.8228131865319
 21
185.1521697838273
 31
0.0
  0
LINE
  5
4B
330
2
100
AcDbEntity
  8
2
100
AcDbLine
 10
384.8228131865319
 20
185.1521697838273
 30
0.0
 11
384.8228131865319
 21
195.6878237838273
 31
0.0
  0
CIRCLE
  5
4C
330
2
100
AcDbEntity
  8
2
100
AcDbCircle
 10
385.3228131865319
 20
190.4199967838272
 30
0.0
 40
6.0
  0
CIRCLE
  5
4D
330
2
100
AcDbEntity
  8
2
100
AcDbCircle
 10
385.3228131865319
 20
190.4199967838272
 30
0.0
 40
7.0
  0
ARC
  5
4E
330
2
100
AcDbEntity
  8
2
100
AcDbCircle
 10
385.3228131865319
 20
190.4199967838272
 30
0.0
 40
17.5
100
AcDbArc
 50
180.5420879999999
 51
90.0
  0
ARC
  5
4F
330
2
100
AcDbEntity
  8
2
100
AcDbCircle
 10
342.3228131865319
 20
196.4199967838272
 30
0.0
 40
2.5
100
AcDbArc
 50
113.642977
 51
280.388858
  0
ARC
  5
50
330
2
100
AcDbEntity
  8
2
100
AcDbCircle
 10
361.8238641865318
 20
190.1976607838273
 30
0.0
 40
6.0
100
AcDbArc
 50
0.5420880000000001
 51
93.184319
  0
ARC
  5
51
330
2
100
AcDbEntity
  8
2
100
AcDbCircle
 10
369.8228131865318
 20
46.41999678382728
 30
0.0
 40
150.0
100
AcDbArc
 50
93.184319
 51
100.3888579999999
  0
ARC
  5
52
330
2
100
AcDbEntity
  8
2
100
AcDbCircle
 10
385.3228131865319
 20
98.1977747838273
 30
0.0
 40
109.722222
100
AcDbArc
 50
90.0
 51
113.642977
  0
ARC
  5
53
330
2
100
AcDbEntity
  8
4
100
AcDbCircle
 10
293.1005901865318
 20
190.4199967838272
 30
0.0
 40
109.722222
100
AcDbArc
 50
0.000000000000653
 51
23.64297699999999
  0
ARC
  5
56
330
2
100
AcDbEntity
  8
4
100
AcDbCircle
 10
391.3228131865318
 20
233.4199967838272
 30
0.0
 40
2.5
100
AcDbArc
 50
23.64297699999999
 51
190.388858
  0
ARC
  5
57
330
2
100
AcDbEntity
  8
4
100
AcDbCircle
 10
241.3228131865317
 20
205.9199967838273
 30
0.0
 40
150.0
100
AcDbArc
 50
3.184318999999999
 51
10.388858
  0
ARC
  5
58
330
2
100
AcDbEntity
  8
4
100
AcDbCircle
 10
385.1004771865318
 20
213.9189447838272
 30
0.0
 40
6.0
100
AcDbArc
 50
270.5420879999999
 51
3.184319000000011
  0
LINE
  5
59
330
2
100
AcDbEntity
  8
2
100
AcDbLine
 10
408.3228131865317
 20
132.7199967838273
 30
0.0
 11
407.8228131865317
 21
133.2199967838272
 31
0.0
  0
LINE
  5
5A
330
2
100
AcDbEntity
  8
2
100
AcDbLine
 10
362.8228131865319
 20
133.2199967838272
 30
0.0
 11
362.3228131865319
 21
132.7199967838273
 31
0.0
  0
LINE
  5
5B
330
2
100
AcDbEntity
  8
2
100
AcDbLine
 10
362.8228131865319
 20
133.2199967838272
 30
0.0
 11
407.8228131865317
 21
133.2199967838272
 31
0.0
  0
LINE
  5
5C
330
2
100
AcDbEntity
  8
2
100
AcDbLine
 10
408.3228131865317
 20
132.7199967838273
 30
0.0
 11
408.3228131865317
 21
130.7199967838273
 31
0.0
  0
LINE
  5
5D
330
2
100
AcDbEntity
  8
2
100
AcDbLine
 10
408.3228131865317
 20
130.7199967838273
 30
0.0
 11
362.3228131865319
 21
130.7199967838273
 31
0.0
  0
LINE
  5
5E
330
2
100
AcDbEntity
  8
2
100
AcDbLine
 10
362.3228131865319
 20
130.7199967838273
 30
0.0
 11
362.3228131865319
 21
132.7199967838273
 31
0.0
  0
LINE
  5
5F
330
2
100
AcDbEntity
  8
2
100
AcDbLine
 10
404.8228131865318
 20
218.2199967838272
 30
0.0
 11
365.8228131865318
 21
218.2199967838272
 31
0.0
  0
LINE
  5
60
330
2
100
AcDbEntity
  8
2
100
AcDbLine
 10
405.2625051865318
 20
221.3856897838273
 30
0.0
 11
397.0712401638085
 21
243.8910068462593
 31
0.0
  0
LINE
  5
61
330
2
100
AcDbEntity
  8
2
100
AcDbLine
 10
365.3228131865319
 20
218.7199967838273
 30
0.0
 11
365.3228131865319
 21
221.0436697838273
 31
0.0
  0
LINE
  5
62
330
2
100
AcDbEntity
  8
2
100
AcDbLine
 10
365.3831201865317
 20
221.3856897838273
 30
0.0
 11
373.5743852092551
 21
243.8910068462592
 31
0.0
  0
LINE
  5
63
330
2
100
AcDbEntity
  8
2
100
AcDbLine
 10
379.0778151865318
 20
221.2199967838273
 30
0.0
 11
379.0778151865318
 21
218.2199967838272
 31
0.0
  0
LINE
  5
64
330
2
100
AcDbEntity
  8
2
100
AcDbLine
 10
391.5678111865318
 20
221.2199967838273
 30
0.0
 11
391.5678111865318
 21
218.2199967838272
 31
0.0
  0
LINE
  5
65
330
2
100
AcDbEntity
  8
2
100
AcDbLine
 10
374.0442315230078
 20
244.2199967838272
 30
0.0
 11
396.6013938500557
 21
244.2199967838273
 31
0.0
  0
LINE
  5
66
330
2
100
AcDbEntity
  8
2
100
AcDbLine
 10
365.3384811865318
 20
221.2199967838273
 30
0.0
 11
379.0778151865318
 21
221.2199967838273
 31
0.0
  0
LINE
  5
67
330
2
100
AcDbEntity
  8
2
100
AcDbLine
 10
391.5678111865318
 20
221.2199967838273
 30
0.0
 11
405.3071441865317
 21
221.2199967838273
 31
0.0
  0
LINE
  5
68
330
2
100
AcDbEntity
  8
2
100
AcDbLine
 10
405.3228131865318
 20
218.7199967838273
 30
0.0
 11
405.3228131865318
 21
221.0436697838273
 31
0.0
  0
ARC
  5
69
330
2
100
AcDbEntity
  8
2
100
AcDbCircle
 10
365.8228131865318
 20
218.7199967838273
 30
0.0
 40
0.5
100
AcDbArc
 50
180.0
 51
270.0
  0
ARC
  5
6A
330
2
100
AcDbEntity
  8
2
100
AcDbCircle
 10
366.3228131865319
 20
221.0436697838273
 30
0.0
 40
1.0
100
AcDbArc
 50
160.0
 51
180.0
  0
ARC
  5
6B
330
2
100
AcDbEntity
  8
2
100
AcDbCircle
 10
385.3228131865319
 20
214.6464847838273
 30
0.0
 40
9.067031
100
AcDbArc
 50
46.46805900000001
 51
133.5319409999999
  0
ARC
  5
6C
330
2
100
AcDbEntity
  8
2
100
AcDbCircle
 10
404.8228131865318
 20
218.7199967838273
 30
0.0
 40
0.5
100
AcDbArc
 50
270.0
 51
0.0
  0
ARC
  5
6D
330
2
100
AcDbEntity
  8
2
100
AcDbCircle
 10
404.3228131865318
 20
221.0436697838273
 30
0.0
 40
1.0
100
AcDbArc
 50
0.0
 51
20.0
  0
LINE
  5
6E
330
2
100
AcDbEntity
  8
2
100
AcDbLine
 10
377.3684721865318
 20
258.5200117838272
 30
0.0
 11
393.2771531865317
 21
258.5200117838272
 31
0.0
  0
LINE
  5
6F
330
2
100
AcDbEntity
  8
2
100
AcDbLine
 10
376.3869594150493
 20
257.711408438492
 30
0.0
 11
373.9385461865317
 21
245.1154167838272
 31
0.0
  0
LINE
  5
70
330
2
100
AcDbEntity
  8
2
100
AcDbLine
 10
394.2586659579714
 20
257.7114084387117
 30
0.0
 11
396.7070791865318
 21
245.1154167838272
 31
0.0
  0
LINE
  5
71
330
2
100
AcDbEntity
  8
2
100
AcDbLine
 10
393.2728131865318
 20
244.2199967838273
 30
0.0
 11
393.2728131865318
 21
244.5199967838273
 31
0.0
  0
LINE
  5
72
330
2
100
AcDbEntity
  8
2
100
AcDbLine
 10
396.2162651865318
 20
244.5200117838272
 30
0.0
 11
374.4293601865317
 21
244.5200117838272
 31
0.0
  0
LINE
  5
73
330
2
100
AcDbEntity
  8
2
100
AcDbLine
 10
377.3728131865318
 20
244.2199967838273
 30
0.0
 11
377.3728131865318
 21
244.5199967838273
 31
0.0
  0
ARC
  5
74
330
2
100
AcDbEntity
  8
2
100
AcDbCircle
 10
393.2771531865317
 20
257.5200117838272
 30
0.0
 40
1.0
100
AcDbArc
 50
11.0
 51
90.0
  0
ARC
  5
75
330
2
100
AcDbEntity
  8
2
100
AcDbCircle
 10
377.3684721865318
 20
257.5200117838272
 30
0.0
 40
1.0
100
AcDbArc
 50
90.0
 51
169.0
  0
ARC
  5
76
330
2
100
AcDbEntity
  8
2
100
AcDbCircle
 10
396.2162651865318
 20
245.0200117838272
 30
0.0
 40
0.5
100
AcDbArc
 50
270.0
 51
11.0
  0
ARC
  5
77
330
2
100
AcDbEntity
  8
2
100
AcDbCircle
 10
374.4293601865317
 20
245.0200117838272
 30
0.0
 40
0.5
100
AcDbArc
 50
169.0
 51
270.0
  0
LINE
  5
78
330
2
100
AcDbEntity
  8
2
100
AcDbLine
 10
362.3228131865319
 20
132.7199967838273
 30
0.0
 11
408.3228131865317
 21
132.7199967838273
 31
0.0
  0
LINE
  5
79
330
2
100
AcDbEntity
  8
2
100
AcDbLine
 10
408.3228131865317
 20
133.7199967838273
 30
0.0
 11
362.3228131865319
 21
133.7199967838273
 31
0.0
  0
LINE
  5
7A
330
2
100
AcDbEntity
  8
2
100
AcDbLine
 10
190.9077745368677
 20
328.9657787838272
 30
0.0
 11
190.7307605368677
 21
319.3291797838272
 31
0.0
  0
LINE
  5
7B
330
2
100
AcDbEntity
  8
2
100
AcDbLine
 10
207.7930385368678
 20
317.3873867838272
 30
0.0
 11
209.7859145368678
 21
326.8173297838273
 31
0.0
  0
ARC
  5
7C
330
2
100
AcDbEntity
  8
2
100
AcDbCircle
 10
236.1581075368677
 20
244.0200117838272
 30
0.0
 40
143.65
100
AcDbArc
 50
5.793289999999984
 51
86.24010100000001
  0
ARC
  5
7D
330
2
100
AcDbEntity
  8
2
100
AcDbCircle
 10
236.1581075368677
 20
244.0200117838272
 30
0.0
 40
156.3499999999999
100
AcDbArc
 50
5.321294000000008
 51
86.05298499999999
  0
LINE
  5
7E
330
2
100
AcDbEntity
  8
2
100
AcDbLine
 10
191.6175155368676
 20
318.3172277838272
 30
0.0
 11
206.7015725368677
 21
316.6005687838272
 31
0.0
  0
ARC
  5
7F
330
2
100
AcDbEntity
  8
2
100
AcDbCircle
 10
206.8146485368678
 20
317.5941547838272
 30
0.0
 40
1.0
100
AcDbArc
 50
263.50732
 51
348.0669879999999
  0
ARC
  5
80
330
2
100
AcDbEntity
  8
2
100
AcDbCircle
 10
191.7305915368677
 20
319.3108137838272
 30
0.0
 40
1.0
100
AcDbArc
 50
178.9476519999999
 51
263.50732
  0
ARC
  5
81
330
2
100
AcDbEntity
  8
2
100
AcDbCircle
 10
243.5503275368677
 20
353.7713447838272
 30
0.0
 40
46.35
100
AcDbArc
 50
86.14670500000002
 51
173.440449
  0
ARC
  5
82
330
2
100
AcDbEntity
  8
2
100
AcDbCircle
 10
243.5503275368677
 20
353.7713447838272
 30
0.0
 40
33.65
100
AcDbArc
 50
86.14670500000002
 51
173.440449
  0
LINE
  5
83
330
2
100
AcDbEntity
  8
2
100
AcDbLine
 10
197.4976035368678
 20
359.0124307838272
 30
0.0
 11
195.2474875368677
 21
339.2409627838272
 31
0.0
  0
LINE
  5
84
330
2
100
AcDbEntity
  8
2
100
AcDbLine
 10
210.1161495368677
 20
357.5763617838272
 30
0.0
 11
207.8660335368677
 21
337.8048937838272
 31
0.0
  0
LINE
  5
85
330
2
100
AcDbEntity
  8
2
100
AcDbLine
 10
200.4259985368677
 20
328.5870647838272
 30
0.0
 11
191.5637985368676
 21
329.5956377838272
 31
0.0
  0
LINE
  5
86
330
2
100
AcDbEntity
  8
2
100
AcDbLine
 10
200.3468445368677
 20
327.8915547838272
 30
0.0
 11
190.9077745368677
 21
328.9657787838272
 31
0.0
  0
ARC
  5
87
330
2
100
AcDbEntity
  8
2
100
AcDbCircle
 10
194.3506585368677
 20
338.3365717838272
 30
0.0
 40
1.0
100
AcDbArc
 50
83.50731999999998
 51
164.9765539999999
  0
ARC
  5
88
330
2
100
AcDbEntity
  8
2
100
AcDbCircle
 10
208.5367115368677
 20
336.7221117838272
 30
0.0
 40
1.0
100
AcDbArc
 50
2.038086000000021
 51
83.50731999999998
  0
LINE
  5
89
330
2
100
AcDbEntity
  8
2
100
AcDbLine
 10
209.2881985368677
 20
327.5784917838272
 30
0.0
 11
200.4259985368677
 21
328.5870647838272
 31
0.0
  0
LINE
  5
8A
330
2
100
AcDbEntity
  8
2
100
AcDbLine
 10
209.7859145368678
 20
326.8173297838273
 30
0.0
 11
200.3468445368677
 21
327.8915547838272
 31
0.0
  0
LINE
  5
8B
330
2
100
AcDbEntity
  8
2
100
AcDbLine
 10
207.5503455368677
 20
327.0717517838272
 30
0.0
 11
207.6294985368678
 21
327.7672617838272
 31
0.0
  0
ARC
  5
8C
330
2
100
AcDbEntity
  8
2
100
AcDbCircle
 10
209.3447365368677
 20
328.0752847838272
 30
0.0
 40
0.5
100
AcDbArc
 50
263.50732
 51
2.038086000000021
  0
LINE
  5
8D
330
2
100
AcDbEntity
  8
2
100
AcDbLine
 10
209.8444195368677
 20
328.0930667838272
 30
0.0
 11
209.5360785368677
 21
336.7576747838272
 31
0.0
  0
LINE
  5
8E
330
2
100
AcDbEntity
  8
2
100
AcDbLine
 10
208.6497875368677
 20
337.7156977838272
 30
0.0
 11
201.5567605368677
 21
338.5229277838273
 31
0.0
  0
LINE
  5
8F
330
2
100
AcDbEntity
  8
2
100
AcDbLine
 10
201.5567605368677
 20
338.5229277838273
 30
0.0
 11
194.4637345368677
 21
339.3301587838272
 31
0.0
  0
LINE
  5
90
330
2
100
AcDbEntity
  8
2
100
AcDbLine
 10
193.3848385368677
 20
338.5957867838273
 30
0.0
 11
191.1374265368678
 21
330.2220387838272
 31
0.0
  0
LINE
  5
91
330
2
100
AcDbEntity
  8
2
100
AcDbLine
 10
193.1433435368677
 20
328.7113577838272
 30
0.0
 11
193.2224975368677
 21
329.4068677838272
 31
0.0
  0
ARC
  5
92
330
2
100
AcDbEntity
  8
2
100
AcDbCircle
 10
191.6203365368677
 20
330.0924317838272
 30
0.0
 40
0.5
100
AcDbArc
 50
164.9765539999999
 51
263.50732
  0
ARC
  5
93
330
2
100
AcDbEntity
  8
2
100
AcDbCircle
 10
374.0442315230078
 20
243.7199967838272
 30
0.0
 40
0.5
100
AcDbArc
 50
90.00000000000007
 51
160.0000011256632
  0
ARC
  5
94
330
2
100
AcDbEntity
  8
2
100
AcDbCircle
 10
396.6013938500557
 20
243.7199967838273
 30
0.0
 40
0.5
100
AcDbArc
 50
19.99999887433656
 51
90.00000000000017
  0
POINT
  5
95
330
2
100
AcDbEntity
  8
0
 62
     1
100
AcDbPoint
 10
385.3228131865318
 20
130.4199967838272
 30
0.0
  0
ENDSEC
  0
SECTION
  2
OBJECTS
  0
DICTIONARY
  5
9
330
0
100
AcDbDictionary
  3
ACAD_GROUP
350
2D
  3
ACAD_LAYOUT
350
D
  3
ACAD_MLINESTYLE
350
2E
  3
ACAD_PLOTSETTINGS
350
2F
1001
ACAD
1000
TREAT_AS_HARD
1070
     0
  0
DICTIONARY
  5
3
330
2
100
AcDbDictionary
  3
ACAD_SORTENTS
350
4
  3
ACAD_LAYOUTSELFREF
350
9C
1001
ACAD
1000
TREAT_AS_HARD
1070
     1
  0
DICTIONARY
  5
9D
330
11
100
AcDbDictionary
  3
ACAD_LAYOUTSELFREF
350
9E
  0
DICTIONARY
  5
2D
102
{ACAD_REACTORS
330
9
102
}
330
9
100
AcDbDictionary
1001
ACAD
1000
TREAT_AS_HARD
1070
     0
  0
DICTIONARY
  5
D
102
{ACAD_REACTORS
330
9
102
}
330
9
100
AcDbDictionary
1001
ACAD
1000
TREAT_AS_HARD
1070
     0
  0
DICTIONARY
  5
2E
102
{ACAD_REACTORS
330
9
102
}
330
9
100
AcDbDictionary
  3
STANDARD
350
30
1001
ACAD
1000
TREAT_AS_HARD
1070
     0
  0
DICTIONARY
  5
2F
102
{ACAD_REACTORS
330
9
102
}
330
9
100
AcDbDictionary
1001
ACAD
1000
TREAT_AS_HARD
1070
     0
  0
SORTENTSTABLE
  5
4
102
{ACAD_REACTORS
330
3
102
}
330
3
100
AcDbSortentsTable
330
2
  0
XRECORD
  5
9C
102
{ACAD_REACTORS
330
3
102
}
330
3
100
AcDbXrecord
340
2
  0
XRECORD
  5
9E
102
{ACAD_REACTORS
330
9D
102
}
330
9D
100
AcDbXrecord
340
11
  0
MLINESTYLE
  5
30
102
{ACAD_REACTORS
330
2E
102
}
330
2E
100
AcDbMlineStyle
  2
STANDARD
 70
     0
  3

 62
   256
 51
90.0
 52
90.0
 71
     2
 49
0.5
 62
   256
  6
BYLAYER
 49
-0.5
 62
   256
  6
BYLAYER
  0
ENDSEC
  0
EOF
