  0
SECTION
  2
HEADER
  9
$ACADVER
  1
AC1009
  9
$INSBASE
 10
146.11451792606081
 20
138.94592668535111
 30
0.0
  9
$EXTMIN
 10
119.0927135188746
 20
111.9278877846989
 30
-0.0000000349181948
  9
$EXTMAX
 10
419.05151464865952
 20
202.5424352739268
 30
0.0000000814935746
  9
$LIMMIN
 10
0.0
 20
0.0
  9
$LIMMAX
 10
420.0
 20
297.0
  9
$ORTHOMODE
 70
     0
  9
$REGENMODE
 70
     1
  9
$FILLMODE
 70
     1
  9
$QTEXTMODE
 70
     0
  9
$MIRRTEXT
 70
     1
  9
$DRAGMODE
 70
     2
  9
$LTSCALE
 40
1.0
  9
$OSMODE
 70
    55
  9
$ATTMODE
 70
     1
  9
$TEXTSIZE
 40
2.5
  9
$TRACEWID
 40
1.0
  9
$TEXTSTYLE
  7
STANDARD
  9
$CLAYER
  8
0
  9
$CELTYPE
  6
BYLAYER
  9
$CECOLOR
 62
   256
  9
$DIMSCALE
 40
1.0
  9
$DIMASZ
 40
2.5
  9
$DIMEXO
 40
0.625
  9
$DIMDLI
 40
3.75
  9
$DIMRND
 40
0.0
  9
$DIMDLE
 40
0.0
  9
$DIMEXE
 40
1.25
  9
$DIMTP
 40
0.0
  9
$DIMTM
 40
0.0
  9
$DIMTXT
 40
2.5
  9
$DIMCEN
 40
2.5
  9
$DIMTSZ
 40
0.0
  9
$DIMTOL
 70
     0
  9
$DIMLIM
 70
     0
  9
$DIMTIH
 70
     0
  9
$DIMTOH
 70
     0
  9
$DIMSE1
 70
     0
  9
$DIMSE2
 70
     0
  9
$DIMTAD
 70
     1
  9
$DIMZIN
 70
     8
  9
$DIMBLK
  1

  9
$DIMASO
 70
     1
  9
$DIMSHO
 70
     1
  9
$DIMPOST
  1

  9
$DIMAPOST
  1

  9
$DIMALT
 70
     0
  9
$DIMALTD
 70
     3
  9
$DIMALTF
 40
0.03937007874016
  9
$DIMLFAC
 40
1.0
  9
$DIMTOFL
 70
     1
  9
$DIMTVP
 40
0.0
  9
$DIMTIX
 70
     0
  9
$DIMSOXD
 70
     0
  9
$DIMSAH
 70
     0
  9
$DIMBLK1
  1

  9
$DIMBLK2
  1

  9
$DIMSTYLE
  2
ISO-25
  9
$DIMCLRD
 70
     0
  9
$DIMCLRE
 70
     0
  9
$DIMCLRT
 70
     0
  9
$DIMTFAC
 40
1.0
  9
$DIMGAP
 40
0.625
  9
$LUNITS
 70
     2
  9
$LUPREC
 70
     4
  9
$SKETCHINC
 40
1.0
  9
$FILLETRAD
 40
10.0
  9
$AUNITS
 70
     0
  9
$AUPREC
 70
     0
  9
$MENU
  1
.
  9
$ELEVATION
 40
0.0
  9
$PELEVATION
 40
0.0
  9
$THICKNESS
 40
0.0
  9
$LIMCHECK
 70
     0
  9
$BLIPMODE
 70
     0
  9
$CHAMFERA
 40
10.0
  9
$CHAMFERB
 40
10.0
  9
$SKPOLY
 70
     0
  9
$TDCREATE
 40
2453440.8898635879
  9
$TDUPDATE
 40
2453440.8922698959
  9
$TDINDWG
 40
0.0024072106
  9
$TDUSRTIMER
 40
0.0024072106
  9
$USRTIMER
 70
     1
  9
$ANGBASE
 50
0.0
  9
$ANGDIR
 70
     0
  9
$PDMODE
 70
     0
  9
$PDSIZE
 40
0.0
  9
$PLINEWID
 40
0.0
  9
$COORDS
 70
     1
  9
$SPLFRAME
 70
     0
  9
$SPLINETYPE
 70
     6
  9
$SPLINESEGS
 70
     8
  9
$ATTDIA
 70
     0
  9
$ATTREQ
 70
     1
  9
$HANDLING
 70
 10241
  9
$HANDSEED
  5
256
  9
$SURFTAB1
 70
     6
  9
$SURFTAB2
 70
     6
  9
$SURFTYPE
 70
     6
  9
$SURFU
 70
     6
  9
$SURFV
 70
     6
  9
$UCSNAME
  2

  9
$UCSORG
 10
0.0
 20
0.0
 30
0.0
  9
$UCSXDIR
 10
1.0
 20
0.0
 30
0.0
  9
$UCSYDIR
 10
0.0
 20
1.0
 30
0.0
  9
$PUCSNAME
  2

  9
$PUCSORG
 10
0.0
 20
0.0
 30
0.0
  9
$PUCSXDIR
 10
1.0
 20
0.0
 30
0.0
  9
$PUCSYDIR
 10
0.0
 20
1.0
 30
0.0
  9
$USERI1
 70
     0
  9
$USERI2
 70
     0
  9
$USERI3
 70
     0
  9
$USERI4
 70
     0
  9
$USERI5
 70
     0
  9
$USERR1
 40
0.0
  9
$USERR2
 40
0.0
  9
$USERR3
 40
0.0
  9
$USERR4
 40
0.0
  9
$USERR5
 40
0.0
  9
$WORLDVIEW
 70
     1
  9
$SHADEDGE
 70
     3
  9
$SHADEDIF
 70
    70
  9
$TILEMODE
 70
     1
  9
$MAXACTVP
 70
    64
  9
$PLIMCHECK
 70
     0
  9
$PEXTMIN
 10
1.0000000000000000E+020
 20
1.0000000000000000E+020
 30
1.0000000000000000E+020
  9
$PEXTMAX
 10
-1.0000000000000000E+020
 20
-1.0000000000000000E+020
 30
-1.0000000000000000E+020
  9
$PLIMMIN
 10
0.0
 20
0.0
  9
$PLIMMAX
 10
420.0
 20
297.0
  9
$UNITMODE
 70
     0
  9
$VISRETAIN
 70
     1
  9
$PLINEGEN
 70
     0
  9
$PSLTSCALE
 70
     1
  0
ENDSEC
  0
SECTION
  2
TABLES
  0
TABLE
  2
VPORT
 70
     4
  0
VPORT
  2
*ACTIVE
 70
     0
 10
0.0
 20
0.0
 11
1.0
 21
1.0
 12
254.1691810144913
 22
147.27564059780499
 13
0.0
 23
0.0
 14
10.0
 24
10.0
 15
10.0
 25
10.0
 16
0.0
 26
0.0
 36
1.0
 17
0.0
 27
0.0
 37
0.0
 40
210.9922659910313
 41
1.899799599198396
 42
50.0
 43
0.0
 44
0.0
 50
0.0
 51
0.0
 71
     0
 72
   100
 73
     1
 74
     3
 75
     0
 76
     0
 77
     0
 78
     0
  0
ENDTAB
  0
TABLE
  2
LTYPE
 70
     1
  0
LTYPE
  2
CONTINUOUS
 70
     0
  3
Solid line
 72
    65
 73
     0
 40
0.0
  0
ENDTAB
  0
TABLE
  2
LAYER
 70
     2
  0
LAYER
  2
0
 70
     0
 62
     7
  6
CONTINUOUS
  0
LAYER
  2
M1
 70
     0
 62
     3
  6
CONTINUOUS
  0
ENDTAB
  0
TABLE
  2
STYLE
 70
     1
  0
STYLE
  2
STANDARD
 70
     0
 40
0.0
 41
1.0
 50
0.0
 71
     0
 42
2.5
  3
romant.shx
  4
bigfont.shx
  0
ENDTAB
  0
TABLE
  2
VIEW
 70
     0
  0
ENDTAB
  0
TABLE
  2
UCS
 70
     0
  0
ENDTAB
  0
TABLE
  2
APPID
 70
     1
  0
APPID
  2
ACAD
 70
     0
  0
ENDTAB
  0
TABLE
  2
DIMSTYLE
 70
     2
  0
DIMSTYLE
  2
ISO-25
 70
     0
  3

  4

  5

  6

  7

 40
1.0
 41
2.5
 42
0.625
 43
3.75
 44
1.25
 45
0.0
 46
0.0
 47
0.0
 48
0.0
140
2.5
141
2.5
142
0.0
143
0.03937007874016
144
1.0
145
0.0
146
1.0
147
0.625
 71
     0
 72
     0
 73
     0
 74
     0
 75
     0
 76
     0
 77
     1
 78
     8
170
     0
171
     3
172
     1
173
     0
174
     0
175
     0
176
     0
177
     0
178
     0
  0
DIMSTYLE
  2
STANDARD
 70
     0
  3

  4

  5

  6

  7

 40
1.0
 41
0.18
 42
0.0625
 43
0.38
 44
0.18
 45
0.0
 46
0.0
 47
0.0
 48
0.0
140
0.18
141
0.09
142
0.0
143
25.399999999999999
144
1.0
145
0.0
146
1.0
147
0.09
 71
     0
 72
     0
 73
     1
 74
     1
 75
     0
 76
     0
 77
     0
 78
     0
170
     0
171
     2
172
     0
173
     0
174
     0
175
     0
176
     0
177
     0
178
     0
  0
ENDTAB
  0
ENDSEC
  0
SECTION
  2
BLOCKS
  0
BLOCK
  8
0
  2
$MODEL_SPACE
 70
     0
 10
0.0
 20
0.0
 30
0.0
  3
$MODEL_SPACE
  1

  0
ENDBLK
  5
21
  8
0
  0
BLOCK
 67
     1
  8
0
  2
$PAPER_SPACE
 70
     0
 10
0.0
 20
0.0
 30
0.0
  3
$PAPER_SPACE
  1

  0
ENDBLK
  5
1D
 67
     1
  8
0
  0
ENDSEC
  0
SECTION
  2
ENTITIES
  0
POLYLINE
  5
70
  8
0
  6
BYBLOCK
 62
     0
 66
     1
 10
0.0
 20
0.0
 30
0.0
  0
VERTEX
  5
188
  8
0
  6
BYBLOCK
 62
     0
 10
401.18646992606079
 20
122.4459266853511
 30
0.0
  0
VERTEX
  5
189
  8
0
  6
BYBLOCK
 62
     0
 10
404.28772392606072
 20
122.69659868535111
 30
0.0
  0
VERTEX
  5
18A
  8
0
  6
BYBLOCK
 62
     0
 10
407.29474892606078
 20
123.4409986853511
 30
0.0
  0
VERTEX
  5
18B
  8
0
  6
BYBLOCK
 62
     0
 10
410.11617592606081
 20
124.6565076853511
 30
0.0
  0
VERTEX
  5
18C
  8
0
  6
BYBLOCK
 62
     0
 10
412.66627892606078
 20
126.3061936853512
 30
0.0
  0
VERTEX
  5
18D
  8
0
  6
BYBLOCK
 62
     0
 10
414.8675729260608
 20
128.33993068535111
 30
0.0
  0
VERTEX
  5
18E
  8
0
  6
BYBLOCK
 62
     0
 10
416.65317392606079
 20
130.69592668535111
 30
0.0
  0
VERTEX
  5
18F
  8
0
  6
BYBLOCK
 62
     0
 10
417.96882792606078
 20
133.3025946853511
 30
0.0
  0
VERTEX
  5
190
  8
0
  6
BYBLOCK
 62
     0
 10
418.77455692606082
 20
136.08073168535111
 30
0.0
  0
VERTEX
  5
191
  8
0
  6
BYBLOCK
 62
     0
 10
419.04588192606082
 20
138.94592668535111
 30
0.0
  0
VERTEX
  5
192
  8
0
  6
BYBLOCK
 62
     0
 10
418.77455692606082
 20
141.8111216853512
 30
0.0
  0
VERTEX
  5
193
  8
0
  6
BYBLOCK
 62
     0
 10
417.96882792606078
 20
144.58925868535121
 30
0.0
  0
VERTEX
  5
194
  8
0
  6
BYBLOCK
 62
     0
 10
416.65317392606079
 20
147.19592668535111
 30
0.0
  0
VERTEX
  5
195
  8
0
  6
BYBLOCK
 62
     0
 10
414.8675729260608
 20
149.5519216853512
 30
0.0
  0
VERTEX
  5
196
  8
0
  6
BYBLOCK
 62
     0
 10
412.66627892606078
 20
151.5856596853512
 30
0.0
  0
VERTEX
  5
197
  8
0
  6
BYBLOCK
 62
     0
 10
410.11617592606081
 20
153.23534568535109
 30
0.0
  0
VERTEX
  5
198
  8
0
  6
BYBLOCK
 62
     0
 10
407.29474892606078
 20
154.4508546853512
 30
0.0
  0
VERTEX
  5
199
  8
0
  6
BYBLOCK
 62
     0
 10
404.28772392606072
 20
155.19525468535119
 30
0.0
  0
VERTEX
  5
19A
  8
0
  6
BYBLOCK
 62
     0
 10
401.18646992606079
 20
155.4459266853512
 30
0.0
  0
SEQEND
  5
19B
  8
0
  6
BYBLOCK
 62
     0
  0
ARC
  5
71
  8
0
  6
BYBLOCK
 62
     0
 10
145.7610679260608
 20
142.52714268535121
 30
0.0
 40
60.0
 50
75.262796000000392
 51
104.73720399999949
  0
LINE
  5
72
  8
0
  6
BYBLOCK
 62
     0
 10
129.2610679260608
 20
175.24155368535111
 30
0.0
 11
162.2610679260608
 21
175.24155368535111
 31
0.0
  0
LINE
  5
73
  8
0
  6
BYBLOCK
 62
     0
 10
127.7610679260608
 20
171.24155368535111
 30
0.0
 11
163.7610679260608
 21
171.24155368535111
 31
0.0
  0
LINE
  5
74
  8
0
  6
BYBLOCK
 62
     0
 10
127.7610679260608
 20
174.74155368535111
 30
0.0
 11
163.7610679260608
 21
174.74155368535111
 31
0.0
  0
POLYLINE
  5
75
  8
0
  6
BYBLOCK
 62
     0
 66
     1
 10
0.0
 20
0.0
 30
0.0
  0
VERTEX
  5
19C
  8
0
  6
BYBLOCK
 62
     0
 10
169.5695619260608
 20
153.32649268535121
 30
0.0
  0
VERTEX
  5
19D
  8
0
  6
BYBLOCK
 62
     0
 10
163.3001899260608
 20
153.10801968535111
 30
0.0
  0
VERTEX
  5
19E
  8
0
  6
BYBLOCK
 62
     0
 10
157.2213099260608
 20
152.45923868535121
 30
0.0
  0
VERTEX
  5
19F
  8
0
  6
BYBLOCK
 62
     0
 10
151.51762492606079
 20
151.3998626853512
 30
0.0
  0
VERTEX
  5
1A0
  8
0
  6
BYBLOCK
 62
     0
 10
146.3624389260608
 20
149.9620796853512
 30
0.0
  0
VERTEX
  5
1A1
  8
0
  6
BYBLOCK
 62
     0
 10
141.9123889260608
 20
148.18957668535111
 30
0.0
  0
VERTEX
  5
1A2
  8
0
  6
BYBLOCK
 62
     0
 10
138.3026889260608
 20
146.13620968535119
 30
0.0
  0
VERTEX
  5
1A3
  8
0
  6
BYBLOCK
 62
     0
 10
135.6430169260608
 20
143.86436968535111
 30
0.0
  0
VERTEX
  5
1A4
  8
0
  6
BYBLOCK
 62
     0
 10
134.0141859260608
 20
141.44308568535109
 30
0.0
  0
VERTEX
  5
1A5
  8
0
  6
BYBLOCK
 62
     0
 10
133.46568692606081
 20
138.94592668535111
 30
0.0
  0
VERTEX
  5
1A6
  8
0
  6
BYBLOCK
 62
     0
 10
134.0141859260608
 20
136.44876768535121
 30
0.0
  0
VERTEX
  5
1A7
  8
0
  6
BYBLOCK
 62
     0
 10
135.6430169260608
 20
134.0274836853512
 30
0.0
  0
VERTEX
  5
1A8
  8
0
  6
BYBLOCK
 62
     0
 10
138.3026889260608
 20
131.75564368535109
 30
0.0
  0
VERTEX
  5
1A9
  8
0
  6
BYBLOCK
 62
     0
 10
141.9123889260608
 20
129.70227668535111
 30
0.0
  0
VERTEX
  5
1AA
  8
0
  6
BYBLOCK
 62
     0
 10
146.3624389260608
 20
127.92977368535109
 30
0.0
  0
VERTEX
  5
1AB
  8
0
  6
BYBLOCK
 62
     0
 10
151.51762492606079
 20
126.4919906853511
 30
0.0
  0
VERTEX
  5
1AC
  8
0
  6
BYBLOCK
 62
     0
 10
157.2213099260608
 20
125.4326146853512
 30
0.0
  0
VERTEX
  5
1AD
  8
0
  6
BYBLOCK
 62
     0
 10
163.3001899260608
 20
124.7838336853512
 30
0.0
  0
VERTEX
  5
1AE
  8
0
  6
BYBLOCK
 62
     0
 10
168.02785092606081
 20
124.5784776853511
 30
0.0
  0
SEQEND
  5
1AF
  8
0
  6
BYBLOCK
 62
     0
  0
ARC
  5
76
  8
0
  6
BYBLOCK
 62
     0
 10
146.11451792606081
 20
138.94592668535111
 30
0.0
 40
27.0
 50
44.041265000000728
 51
315.95873499999919
  0
LINE
  5
77
  8
0
  6
BYBLOCK
 62
     0
 10
128.2610679260608
 20
197.6520006853512
 30
0.0
 11
128.2610679260608
 21
176.24155368535111
 31
0.0
  0
LINE
  5
78
  8
0
  6
BYBLOCK
 62
     0
 10
127.7610679260608
 20
161.57334368535109
 30
0.0
 11
127.7610679260608
 21
174.74155368535111
 31
0.0
  0
ARC
  5
79
  8
0
  6
BYBLOCK
 62
     0
 10
117.7610679260608
 20
161.57334368535109
 30
0.0
 40
10.0
 50
340.18073699999911
 51
0.0
  0
ARC
  5
7A
  8
0
  6
BYBLOCK
 62
     0
 10
129.2610679260608
 20
176.24155368535111
 30
0.0
 40
1.0
 50
180.0
 51
270.0
  0
LINE
  5
7B
  8
0
  6
BYBLOCK
 62
     0
 10
130.76107592606081
 20
174.74155368535111
 30
0.0
 11
130.76107592606081
 21
175.24155368535111
 31
0.0
  0
ARC
  5
7C
  8
0
  6
BYBLOCK
 62
     0
 10
131.2610679260608
 20
197.6520006853512
 30
0.0
 40
3.0
 50
104.73720399999949
 51
180.0
  0
POLYLINE
  5
7D
  8
0
  6
BYBLOCK
 62
     0
 66
     1
 10
0.0
 20
0.0
 30
0.0
  0
VERTEX
  5
1B0
  8
0
  6
BYBLOCK
 62
     0
 10
362.49581892606068
 20
155.4459266853512
 30
0.0
  0
VERTEX
  5
1B1
  8
0
  6
BYBLOCK
 62
     0
 10
362.30379392606079
 20
155.19525468535119
 30
0.0
  0
VERTEX
  5
1B2
  8
0
  6
BYBLOCK
 62
     0
 10
362.11760192606079
 20
154.4508546853512
 30
0.0
  0
VERTEX
  5
1B3
  8
0
  6
BYBLOCK
 62
     0
 10
361.94290292606081
 20
153.23534568535109
 30
0.0
  0
VERTEX
  5
1B4
  8
0
  6
BYBLOCK
 62
     0
 10
361.78500392606082
 20
151.5856596853512
 30
0.0
  0
VERTEX
  5
1B5
  8
0
  6
BYBLOCK
 62
     0
 10
361.64870292606082
 20
149.5519216853512
 30
0.0
  0
VERTEX
  5
1B6
  8
0
  6
BYBLOCK
 62
     0
 10
361.53814092606081
 20
147.19592668535111
 30
0.0
  0
VERTEX
  5
1B7
  8
0
  6
BYBLOCK
 62
     0
 10
361.45667692606082
 20
144.58925868535121
 30
0.0
  0
VERTEX
  5
1B8
  8
0
  6
BYBLOCK
 62
     0
 10
361.40678692606082
 20
141.8111216853512
 30
0.0
  0
VERTEX
  5
1B9
  8
0
  6
BYBLOCK
 62
     0
 10
361.38998692606083
 20
138.94592668535111
 30
0.0
  0
VERTEX
  5
1BA
  8
0
  6
BYBLOCK
 62
     0
 10
361.40678692606082
 20
136.08073168535111
 30
0.0
  0
VERTEX
  5
1BB
  8
0
  6
BYBLOCK
 62
     0
 10
361.45667692606082
 20
133.3025946853511
 30
0.0
  0
VERTEX
  5
1BC
  8
0
  6
BYBLOCK
 62
     0
 10
361.53814092606081
 20
130.69592668535111
 30
0.0
  0
VERTEX
  5
1BD
  8
0
  6
BYBLOCK
 62
     0
 10
361.64870292606082
 20
128.33993068535111
 30
0.0
  0
VERTEX
  5
1BE
  8
0
  6
BYBLOCK
 62
     0
 10
361.78500392606082
 20
126.3061936853512
 30
0.0
  0
VERTEX
  5
1BF
  8
0
  6
BYBLOCK
 62
     0
 10
361.94290292606081
 20
124.6565076853511
 30
0.0
  0
VERTEX
  5
1C0
  8
0
  6
BYBLOCK
 62
     0
 10
362.11760192606079
 20
123.4409986853511
 30
0.0
  0
VERTEX
  5
1C1
  8
0
  6
BYBLOCK
 62
     0
 10
362.30379392606079
 20
122.69659868535111
 30
0.0
  0
VERTEX
  5
1C2
  8
0
  6
BYBLOCK
 62
     0
 10
362.49581892606068
 20
122.4459266853511
 30
0.0
  0
SEQEND
  5
1C3
  8
0
  6
BYBLOCK
 62
     0
  0
POLYLINE
  5
7E
  8
0
  6
BYBLOCK
 62
     0
 66
     1
 10
0.0
 20
0.0
 30
0.0
  0
VERTEX
  5
1C4
  8
0
  6
BYBLOCK
 62
     0
 10
186.28994192606081
 20
151.7231916853512
 30
0.0
  0
VERTEX
  5
1C5
  8
0
  6
BYBLOCK
 62
     0
 10
184.57509192606079
 20
151.82558068535121
 30
0.0
  0
VERTEX
  5
1C6
  8
0
  6
BYBLOCK
 62
     0
 10
182.87271192606079
 20
151.53662768535111
 30
0.0
  0
VERTEX
  5
1C7
  8
0
  6
BYBLOCK
 62
     0
 10
181.23452692606079
 20
150.86511268535119
 30
0.0
  0
VERTEX
  5
1C8
  8
0
  6
BYBLOCK
 62
     0
 10
179.71031292606079
 20
149.83143968535111
 30
0.0
  0
VERTEX
  5
1C9
  8
0
  6
BYBLOCK
 62
     0
 10
178.34638192606079
 20
148.46701468535119
 30
0.0
  0
VERTEX
  5
1CA
  8
0
  6
BYBLOCK
 62
     0
 10
177.18417692606079
 20
146.8132976853511
 30
0.0
  0
VERTEX
  5
1CB
  8
0
  6
BYBLOCK
 62
     0
 10
176.2590109260608
 20
144.92053368535119
 30
0.0
  0
VERTEX
  5
1CC
  8
0
  6
BYBLOCK
 62
     0
 10
175.59899392606081
 20
142.84623368535119
 30
0.0
  0
VERTEX
  5
1CD
  8
0
  6
BYBLOCK
 62
     0
 10
175.2241809260608
 20
140.65342568535121
 30
0.0
  0
VERTEX
  5
1CE
  8
0
  6
BYBLOCK
 62
     0
 10
175.14595992606081
 20
138.4087366853511
 30
0.0
  0
VERTEX
  5
1CF
  8
0
  6
BYBLOCK
 62
     0
 10
175.3667079260608
 20
136.18036868535111
 30
0.0
  0
VERTEX
  5
1D0
  8
0
  6
BYBLOCK
 62
     0
 10
175.87971792606081
 20
134.03603168535111
 30
0.0
  0
VERTEX
  5
1D1
  8
0
  6
BYBLOCK
 62
     0
 10
176.6694019260608
 20
132.04087868535109
 30
0.0
  0
VERTEX
  5
1D2
  8
0
  6
BYBLOCK
 62
     0
 10
177.71176592606079
 20
130.25553268535111
 30
0.0
  0
VERTEX
  5
1D3
  8
0
  6
BYBLOCK
 62
     0
 10
178.9751369260608
 20
128.73423968535121
 30
0.0
  0
VERTEX
  5
1D4
  8
0
  6
BYBLOCK
 62
     0
 10
180.42113092606081
 20
127.5232236853511
 30
0.0
  0
VERTEX
  5
1D5
  8
0
  6
BYBLOCK
 62
     0
 10
182.00580992606081
 20
126.65928068535111
 30
0.0
  0
VERTEX
  5
1D6
  8
0
  6
BYBLOCK
 62
     0
 10
183.68102392606079
 20
126.1686606853511
 30
0.0
  0
VERTEX
  5
1D7
  8
0
  6
BYBLOCK
 62
     0
 10
185.3958739260608
 20
126.06627268535109
 30
0.0
  0
VERTEX
  5
1D8
  8
0
  6
BYBLOCK
 62
     0
 10
186.28994192606081
 20
126.1686606853511
 30
0.0
  0
SEQEND
  5
1D9
  8
0
  6
BYBLOCK
 62
     0
  0
POLYLINE
  5
7F
  8
0
  6
BYBLOCK
 62
     0
 66
     1
 10
0.0
 20
0.0
 30
0.0
  0
VERTEX
  5
1DA
  8
0
  6
BYBLOCK
 62
     0
 10
186.07437692606081
 20
148.73061068535111
 30
0.0
  0
VERTEX
  5
1DB
  8
0
  6
BYBLOCK
 62
     0
 10
184.70288392606079
 20
148.81906868535111
 30
0.0
  0
VERTEX
  5
1DC
  8
0
  6
BYBLOCK
 62
     0
 10
183.33997692606081
 20
148.60753668535111
 30
0.0
  0
VERTEX
  5
1DD
  8
0
  6
BYBLOCK
 62
     0
 10
182.02706792606079
 20
148.10244168535121
 30
0.0
  0
VERTEX
  5
1DE
  8
0
  6
BYBLOCK
 62
     0
 10
180.8040489260608
 20
147.3191306853511
 30
0.0
  0
VERTEX
  5
1DF
  8
0
  6
BYBLOCK
 62
     0
 10
179.7080799260608
 20
146.28140368535111
 30
0.0
  0
VERTEX
  5
1E0
  8
0
  6
BYBLOCK
 62
     0
 10
178.7724629260608
 20
145.02079168535121
 30
0.0
  0
VERTEX
  5
1E1
  8
0
  6
BYBLOCK
 62
     0
 10
178.0256259260608
 20
143.57559868535111
 30
0.0
  0
VERTEX
  5
1E2
  8
0
  6
BYBLOCK
 62
     0
 10
177.49025992606079
 20
141.98973568535109
 30
0.0
  0
VERTEX
  5
1E3
  8
0
  6
BYBLOCK
 62
     0
 10
177.18263292606079
 20
140.3113866853511
 30
0.0
  0
VERTEX
  5
1E4
  8
0
  6
BYBLOCK
 62
     0
 10
177.1120909260608
 20
138.59154968535111
 30
0.0
  0
VERTEX
  5
1E5
  8
0
  6
BYBLOCK
 62
     0
 10
177.28077792606081
 20
136.8824806853512
 30
0.0
  0
VERTEX
  5
1E6
  8
0
  6
BYBLOCK
 62
     0
 10
177.68356892606079
 20
135.2361076853511
 30
0.0
  0
VERTEX
  5
1E7
  8
0
  6
BYBLOCK
 62
     0
 10
178.3082249260608
 20
133.70245668535111
 30
0.0
  0
VERTEX
  5
1E8
  8
0
  6
BYBLOCK
 62
     0
 10
179.1357659260608
 20
132.3281246853511
 30
0.0
  0
VERTEX
  5
1E9
  8
0
  6
BYBLOCK
 62
     0
 10
180.14104792606079
 20
131.1548716853512
 30
0.0
  0
VERTEX
  5
1EA
  8
0
  6
BYBLOCK
 62
     0
 10
181.2935249260608
 20
130.2183456853511
 30
0.0
  0
VERTEX
  5
1EB
  8
0
  6
BYBLOCK
 62
     0
 10
182.5581809260608
 20
129.54700368535109
 30
0.0
  0
VERTEX
  5
1EC
  8
0
  6
BYBLOCK
 62
     0
 10
183.89658892606079
 20
129.1612426853512
 30
0.0
  0
VERTEX
  5
1ED
  8
0
  6
BYBLOCK
 62
     0
 10
185.2680829260608
 20
129.0727836853512
 30
0.0
  0
VERTEX
  5
1EE
  8
0
  6
BYBLOCK
 62
     0
 10
186.07437692606081
 20
129.1612426853512
 30
0.0
  0
SEQEND
  5
1EF
  8
0
  6
BYBLOCK
 62
     0
  0
POLYLINE
  5
80
  8
0
  6
BYBLOCK
 62
     0
 66
     1
 10
0.0
 20
0.0
 30
0.0
  0
VERTEX
  5
1F0
  8
0
  6
BYBLOCK
 62
     0
 10
246.57291092606081
 20
126.5319476853512
 30
0.0
  0
VERTEX
  5
1F1
  8
0
  6
BYBLOCK
 62
     0
 10
248.89223292606081
 20
126.8915526853511
 30
0.0
  0
VERTEX
  5
1F2
  8
0
  6
BYBLOCK
 62
     0
 10
251.10866492606081
 20
127.6174236853511
 30
0.0
  0
VERTEX
  5
1F3
  8
0
  6
BYBLOCK
 62
     0
 10
253.15486092606079
 20
128.6875056853512
 30
0.0
  0
VERTEX
  5
1F4
  8
0
  6
BYBLOCK
 62
     0
 10
254.96864692606081
 20
130.06928468535111
 30
0.0
  0
VERTEX
  5
1F5
  8
0
  6
BYBLOCK
 62
     0
 10
256.4949149260608
 20
131.72077668535121
 30
0.0
  0
VERTEX
  5
1F6
  8
0
  6
BYBLOCK
 62
     0
 10
257.68728792606078
 20
133.59179968535111
 30
0.0
  0
VERTEX
  5
1F7
  8
0
  6
BYBLOCK
 62
     0
 10
258.50953592606078
 20
135.6255066853511
 30
0.0
  0
VERTEX
  5
1F8
  8
0
  6
BYBLOCK
 62
     0
 10
258.93667692606078
 20
137.76010168535109
 30
0.0
  0
VERTEX
  5
1F9
  8
0
  6
BYBLOCK
 62
     0
 10
258.95573192606082
 20
139.93072768535109
 30
0.0
  0
VERTEX
  5
1FA
  8
0
  6
BYBLOCK
 62
     0
 10
258.56612092606082
 20
142.07143168535109
 30
0.0
  0
VERTEX
  5
1FB
  8
0
  6
BYBLOCK
 62
     0
 10
257.77968392606078
 20
144.1171686853512
 30
0.0
  0
VERTEX
  5
1FC
  8
0
  6
BYBLOCK
 62
     0
 10
256.62031492606081
 20
146.0057796853512
 30
0.0
  0
VERTEX
  5
1FD
  8
0
  6
BYBLOCK
 62
     0
 10
255.12324092606079
 20
147.67988068535109
 30
0.0
  0
VERTEX
  5
1FE
  8
0
  6
BYBLOCK
 62
     0
 10
253.3339499260608
 20
149.08860468535121
 30
0.0
  0
VERTEX
  5
1FF
  8
0
  6
BYBLOCK
 62
     0
 10
251.30680992606079
 20
150.18914868535111
 30
0.0
  0
VERTEX
  5
200
  8
0
  6
BYBLOCK
 62
     0
 10
249.1034119260608
 20
150.94807268535109
 30
0.0
  0
VERTEX
  5
201
  8
0
  6
BYBLOCK
 62
     0
 10
246.7907079260608
 20
151.3423186853511
 30
0.0
  0
VERTEX
  5
202
  8
0
  6
BYBLOCK
 62
     0
 10
246.57291092606081
 20
151.35990568535109
 30
0.0
  0
SEQEND
  5
203
  8
0
  6
BYBLOCK
 62
     0
  0
POLYLINE
  5
81
  8
0
  6
BYBLOCK
 62
     0
 66
     1
 10
0.0
 20
0.0
 30
0.0
  0
VERTEX
  5
204
  8
0
  6
BYBLOCK
 62
     0
 10
147.45128992606081
 20
140.4459266853512
 30
0.0
  0
VERTEX
  5
205
  8
0
  6
BYBLOCK
 62
     0
 10
147.29446392606081
 20
139.1470896853512
 30
0.0
  0
VERTEX
  5
206
  8
0
  6
BYBLOCK
 62
     0
 10
147.37767392606079
 20
137.8421406853511
 30
0.0
  0
VERTEX
  5
207
  8
0
  6
BYBLOCK
 62
     0
 10
147.6983909260608
 20
136.57072968535121
 30
0.0
  0
VERTEX
  5
208
  8
0
  6
BYBLOCK
 62
     0
 10
148.24686992606081
 20
135.37148868535121
 30
0.0
  0
VERTEX
  5
209
  8
0
  6
BYBLOCK
 62
     0
 10
149.00644592606079
 20
134.2808536853511
 30
0.0
  0
VERTEX
  5
20A
  8
0
  6
BYBLOCK
 62
     0
 10
149.9540389260608
 20
133.33196568535109
 30
0.0
  0
VERTEX
  5
20B
  8
0
  6
BYBLOCK
 62
     0
 10
151.06085692606081
 20
132.5536546853512
 30
0.0
  0
VERTEX
  5
20C
  8
0
  6
BYBLOCK
 62
     0
 10
152.29326992606079
 20
131.9695696853511
 30
0.0
  0
VERTEX
  5
20D
  8
0
  6
BYBLOCK
 62
     0
 10
153.61383292606081
 20
131.59745768535109
 30
0.0
  0
VERTEX
  5
20E
  8
0
  6
BYBLOCK
 62
     0
 10
154.9824189260608
 20
131.44862468535109
 30
0.0
  0
VERTEX
  5
20F
  8
0
  6
BYBLOCK
 62
     0
 10
156.35744592606079
 20
131.52759368535109
 30
0.0
  0
VERTEX
  5
210
  8
0
  6
BYBLOCK
 62
     0
 10
157.69713392606079
 20
131.83196568535109
 30
0.0
  0
VERTEX
  5
211
  8
0
  6
BYBLOCK
 62
     0
 10
158.96077792606081
 20
132.3524916853512
 30
0.0
  0
VERTEX
  5
212
  8
0
  6
BYBLOCK
 62
     0
 10
160.10998092606081
 20
133.07335468535109
 30
0.0
  0
VERTEX
  5
213
  8
0
  6
BYBLOCK
 62
     0
 10
161.1098269260608
 20
133.9726536853511
 30
0.0
  0
VERTEX
  5
214
  8
0
  6
BYBLOCK
 62
     0
 10
161.92993492606081
 20
135.0230636853511
 30
0.0
  0
VERTEX
  5
215
  8
0
  6
BYBLOCK
 62
     0
 10
162.54538592606079
 20
136.19266668535121
 30
0.0
  0
VERTEX
  5
216
  8
0
  6
BYBLOCK
 62
     0
 10
162.9374809260608
 20
137.4459266853512
 30
0.0
  0
VERTEX
  5
217
  8
0
  6
BYBLOCK
 62
     0
 10
163.0943059260608
 20
138.7447636853511
 30
0.0
  0
VERTEX
  5
218
  8
0
  6
BYBLOCK
 62
     0
 10
163.01109592606079
 20
140.04971268535121
 30
0.0
  0
VERTEX
  5
219
  8
0
  6
BYBLOCK
 62
     0
 10
162.69037992606081
 20
141.32112268535121
 30
0.0
  0
VERTEX
  5
21A
  8
0
  6
BYBLOCK
 62
     0
 10
162.1419009260608
 20
142.5203646853511
 30
0.0
  0
VERTEX
  5
21B
  8
0
  6
BYBLOCK
 62
     0
 10
161.38232492606079
 20
143.61099968535109
 30
0.0
  0
VERTEX
  5
21C
  8
0
  6
BYBLOCK
 62
     0
 10
160.43473192606081
 20
144.55988768535121
 30
0.0
  0
VERTEX
  5
21D
  8
0
  6
BYBLOCK
 62
     0
 10
159.3279139260608
 20
145.3381986853511
 30
0.0
  0
VERTEX
  5
21E
  8
0
  6
BYBLOCK
 62
     0
 10
158.09550092606079
 20
145.9222836853512
 30
0.0
  0
VERTEX
  5
21F
  8
0
  6
BYBLOCK
 62
     0
 10
156.7749379260608
 20
146.29439568535111
 30
0.0
  0
VERTEX
  5
220
  8
0
  6
BYBLOCK
 62
     0
 10
155.40635192606081
 20
146.4432286853511
 30
0.0
  0
VERTEX
  5
221
  8
0
  6
BYBLOCK
 62
     0
 10
154.03132492606079
 20
146.36425868535119
 30
0.0
  0
VERTEX
  5
222
  8
0
  6
BYBLOCK
 62
     0
 10
152.6916359260608
 20
146.05988768535121
 30
0.0
  0
VERTEX
  5
223
  8
0
  6
BYBLOCK
 62
     0
 10
151.4279929260608
 20
145.53936168535111
 30
0.0
  0
VERTEX
  5
224
  8
0
  6
BYBLOCK
 62
     0
 10
150.2787899260608
 20
144.8184986853511
 30
0.0
  0
VERTEX
  5
225
  8
0
  6
BYBLOCK
 62
     0
 10
149.2789439260608
 20
143.91919968535109
 30
0.0
  0
VERTEX
  5
226
  8
0
  6
BYBLOCK
 62
     0
 10
148.4588359260608
 20
142.8687896853512
 30
0.0
  0
VERTEX
  5
227
  8
0
  6
BYBLOCK
 62
     0
 10
147.84338492606079
 20
141.69918668535109
 30
0.0
  0
VERTEX
  5
228
  8
0
  6
BYBLOCK
 62
     0
 10
147.45128992606081
 20
140.4459266853512
 30
0.0
  0
SEQEND
  5
229
  8
0
  6
BYBLOCK
 62
     0
  0
ARC
  5
82
  8
0
  6
BYBLOCK
 62
     0
 10
234.84263492606081
 20
138.94592668535111
 30
0.0
 40
6.384754
 50
274.9765150000004
 51
85.023484999999496
  0
ARC
  5
83
  8
0
  6
BYBLOCK
 62
     0
 10
240.23273292606081
 20
138.94592668535111
 30
0.0
 40
8.9171770000000006
 50
274.9765150000004
 51
85.023484999999496
  0
LINE
  5
84
  8
0
  6
BYBLOCK
 62
     0
 10
171.05600192606079
 20
135.94592668535111
 30
0.0
 11
171.05600192606079
 21
130.44592668535111
 31
0.0
  0
LINE
  5
85
  8
0
  6
BYBLOCK
 62
     0
 10
168.08312292606081
 20
130.44592668535111
 30
0.0
 11
168.08312292606081
 21
135.94592668535111
 31
0.0
  0
LINE
  5
86
  8
0
  6
BYBLOCK
 62
     0
 10
361.91059092606082
 20
124.9459266853512
 30
0.0
 11
226.34776692606081
 21
124.9459266853512
 31
0.0
  0
LINE
  5
87
  8
0
  6
BYBLOCK
 62
     0
 10
235.3964949260608
 20
132.58524168535121
 30
0.0
 11
186.07437692606081
 21
129.1612426853512
 31
0.0
  0
LINE
  5
88
  8
0
  6
BYBLOCK
 62
     0
 10
145.7610679260608
 20
118.6264566853511
 30
0.0
 11
246.57291092606081
 21
126.5319476853512
 31
0.0
  0
LINE
  5
89
  8
0
  6
BYBLOCK
 62
     0
 10
241.0062749260608
 20
130.06236468535121
 30
0.0
 11
186.28994192606081
 21
126.1686606853511
 31
0.0
  0
LINE
  5
8A
  8
0
  6
BYBLOCK
 62
     0
 10
184.9854829260608
 20
126.0550746853511
 30
0.0
 11
168.02785092606081
 21
124.5784776853511
 31
0.0
  0
POLYLINE
  5
8B
  8
0
  6
BYBLOCK
 62
     0
 66
     1
 10
0.0
 20
0.0
 30
0.0
  0
VERTEX
  5
22A
  8
0
  6
BYBLOCK
 62
     0
 10
168.08312292606081
 20
130.44592668535111
 30
0.0
  0
VERTEX
  5
22B
  8
0
  6
BYBLOCK
 62
     0
 10
168.10570492606081
 20
130.1854546853512
 30
0.0
  0
VERTEX
  5
22C
  8
0
  6
BYBLOCK
 62
     0
 10
168.1727659260608
 20
129.93289668535121
 30
0.0
  0
VERTEX
  5
22D
  8
0
  6
BYBLOCK
 62
     0
 10
168.2822679260608
 20
129.69592668535111
 30
0.0
  0
VERTEX
  5
22E
  8
0
  6
BYBLOCK
 62
     0
 10
168.4308839260608
 20
129.48174568535109
 30
0.0
  0
VERTEX
  5
22F
  8
0
  6
BYBLOCK
 62
     0
 10
168.61409792606079
 20
129.29685968535119
 30
0.0
  0
VERTEX
  5
230
  8
0
  6
BYBLOCK
 62
     0
 10
168.82634292606079
 20
129.1468886853512
 30
0.0
  0
VERTEX
  5
231
  8
0
  6
BYBLOCK
 62
     0
 10
169.06116992606081
 20
129.0363876853512
 30
0.0
  0
VERTEX
  5
232
  8
0
  6
BYBLOCK
 62
     0
 10
169.3114449260608
 20
128.9687146853511
 30
0.0
  0
VERTEX
  5
233
  8
0
  6
BYBLOCK
 62
     0
 10
169.5695629260608
 20
128.9459266853512
 30
0.0
  0
VERTEX
  5
234
  8
0
  6
BYBLOCK
 62
     0
 10
169.8276799260608
 20
128.9687146853511
 30
0.0
  0
VERTEX
  5
235
  8
0
  6
BYBLOCK
 62
     0
 10
170.07795492606081
 20
129.0363876853512
 30
0.0
  0
VERTEX
  5
236
  8
0
  6
BYBLOCK
 62
     0
 10
170.31278192606081
 20
129.1468886853512
 30
0.0
  0
VERTEX
  5
237
  8
0
  6
BYBLOCK
 62
     0
 10
170.5250269260608
 20
129.29685968535119
 30
0.0
  0
VERTEX
  5
238
  8
0
  6
BYBLOCK
 62
     0
 10
170.7082409260608
 20
129.48174568535109
 30
0.0
  0
VERTEX
  5
239
  8
0
  6
BYBLOCK
 62
     0
 10
170.8568569260608
 20
129.69592668535111
 30
0.0
  0
VERTEX
  5
23A
  8
0
  6
BYBLOCK
 62
     0
 10
170.96635892606079
 20
129.93289668535121
 30
0.0
  0
VERTEX
  5
23B
  8
0
  6
BYBLOCK
 62
     0
 10
171.03341992606079
 20
130.1854546853512
 30
0.0
  0
VERTEX
  5
23C
  8
0
  6
BYBLOCK
 62
     0
 10
171.05600192606079
 20
130.44592668535111
 30
0.0
  0
SEQEND
  5
23D
  8
0
  6
BYBLOCK
 62
     0
  0
LINE
  5
8C
  8
0
  6
BYBLOCK
 62
     0
 10
401.18646992606079
 20
122.4459266853511
 30
0.0
 11
362.49581892606068
 21
122.4459266853511
 31
0.0
  0
LINE
  5
8D
  8
0
  6
BYBLOCK
 62
     0
 10
226.34776692606081
 20
152.9459266853512
 30
0.0
 11
361.91059092606082
 21
152.9459266853512
 31
0.0
  0
LINE
  5
8E
  8
0
  6
BYBLOCK
 62
     0
 10
241.0062749260608
 20
147.82948868535121
 30
0.0
 11
186.28994192606081
 21
151.7231916853512
 31
0.0
  0
LINE
  5
8F
  8
0
  6
BYBLOCK
 62
     0
 10
235.3964949260608
 20
145.3066116853511
 30
0.0
 11
186.07437692606081
 21
148.73061068535111
 31
0.0
  0
LINE
  5
90
  8
0
  6
BYBLOCK
 62
     0
 10
145.7610679260608
 20
159.26539668535119
 30
0.0
 11
246.57291092606081
 21
151.35990568535109
 31
0.0
  0
LINE
  5
91
  8
0
  6
BYBLOCK
 62
     0
 10
163.2610679260608
 20
176.24155368535111
 30
0.0
 11
163.2610679260608
 21
184.77628568535121
 31
0.0
  0
LINE
  5
92
  8
0
  6
BYBLOCK
 62
     0
 10
169.5695619260608
 20
153.32649268535121
 30
0.0
 11
184.9854829260608
 21
151.83677868535111
 31
0.0
  0
POLYLINE
  5
93
  8
0
  6
BYBLOCK
 62
     0
 66
     1
 10
0.0
 20
0.0
 30
0.0
  0
VERTEX
  5
23E
  8
0
  6
BYBLOCK
 62
     0
 10
145.83338192606081
 20
140.4459266853512
 30
0.0
  0
VERTEX
  5
23F
  8
0
  6
BYBLOCK
 62
     0
 10
145.71183792606081
 20
138.8821636853512
 30
0.0
  0
VERTEX
  5
240
  8
0
  6
BYBLOCK
 62
     0
 10
145.83338192606081
 20
137.4459266853512
 30
0.0
  0
SEQEND
  5
241
  8
0
  6
BYBLOCK
 62
     0
  0
LINE
  5
94
  8
0
  6
BYBLOCK
 62
     0
 10
145.83338192606081
 20
137.4459266853512
 30
0.0
 11
147.45128992606081
 21
137.4459266853512
 31
0.0
  0
LINE
  5
95
  8
0
  6
BYBLOCK
 62
     0
 10
145.83338192606081
 20
140.4459266853512
 30
0.0
 11
147.45128992606081
 21
140.4459266853512
 31
0.0
  0
LINE
  5
96
  8
0
  6
BYBLOCK
 62
     0
 10
171.05600192606079
 20
141.94592668535111
 30
0.0
 11
171.05600192606079
 21
147.44592668535111
 31
0.0
  0
LINE
  5
97
  8
0
  6
BYBLOCK
 62
     0
 10
168.08312292606081
 20
147.44592668535111
 30
0.0
 11
168.08312292606081
 21
141.94592668535111
 31
0.0
  0
LINE
  5
98
  8
0
  6
BYBLOCK
 62
     0
 10
168.08312292606081
 20
135.94592668535111
 30
0.0
 11
171.05600192606079
 21
135.94592668535111
 31
0.0
  0
LINE
  5
99
  8
0
  6
BYBLOCK
 62
     0
 10
168.08312292606081
 20
141.94592668535111
 30
0.0
 11
171.05600192606079
 21
141.94592668535111
 31
0.0
  0
POLYLINE
  5
9A
  8
0
  6
BYBLOCK
 62
     0
 66
     1
 10
0.0
 20
0.0
 30
0.0
  0
VERTEX
  5
242
  8
0
  6
BYBLOCK
 62
     0
 10
171.05600192606079
 20
147.44592668535111
 30
0.0
  0
VERTEX
  5
243
  8
0
  6
BYBLOCK
 62
     0
 10
171.03341992606079
 20
147.7063986853511
 30
0.0
  0
VERTEX
  5
244
  8
0
  6
BYBLOCK
 62
     0
 10
170.96635892606079
 20
147.9589566853511
 30
0.0
  0
VERTEX
  5
245
  8
0
  6
BYBLOCK
 62
     0
 10
170.8568569260608
 20
148.19592668535111
 30
0.0
  0
VERTEX
  5
246
  8
0
  6
BYBLOCK
 62
     0
 10
170.7082409260608
 20
148.41010768535111
 30
0.0
  0
VERTEX
  5
247
  8
0
  6
BYBLOCK
 62
     0
 10
170.5250269260608
 20
148.5949936853512
 30
0.0
  0
VERTEX
  5
248
  8
0
  6
BYBLOCK
 62
     0
 10
170.31278192606081
 20
148.74496468535111
 30
0.0
  0
VERTEX
  5
249
  8
0
  6
BYBLOCK
 62
     0
 10
170.07795492606081
 20
148.85546568535111
 30
0.0
  0
VERTEX
  5
24A
  8
0
  6
BYBLOCK
 62
     0
 10
169.8276799260608
 20
148.9231386853512
 30
0.0
  0
VERTEX
  5
24B
  8
0
  6
BYBLOCK
 62
     0
 10
169.5695629260608
 20
148.94592668535111
 30
0.0
  0
VERTEX
  5
24C
  8
0
  6
BYBLOCK
 62
     0
 10
169.3114449260608
 20
148.9231386853512
 30
0.0
  0
VERTEX
  5
24D
  8
0
  6
BYBLOCK
 62
     0
 10
169.06116992606081
 20
148.85546568535111
 30
0.0
  0
VERTEX
  5
24E
  8
0
  6
BYBLOCK
 62
     0
 10
168.82634292606079
 20
148.74496468535111
 30
0.0
  0
VERTEX
  5
24F
  8
0
  6
BYBLOCK
 62
     0
 10
168.61409792606079
 20
148.5949936853512
 30
0.0
  0
VERTEX
  5
250
  8
0
  6
BYBLOCK
 62
     0
 10
168.4308839260608
 20
148.41010768535111
 30
0.0
  0
VERTEX
  5
251
  8
0
  6
BYBLOCK
 62
     0
 10
168.2822679260608
 20
148.19592668535111
 30
0.0
  0
VERTEX
  5
252
  8
0
  6
BYBLOCK
 62
     0
 10
168.1727659260608
 20
147.9589566853511
 30
0.0
  0
VERTEX
  5
253
  8
0
  6
BYBLOCK
 62
     0
 10
168.10570492606081
 20
147.7063986853511
 30
0.0
  0
VERTEX
  5
254
  8
0
  6
BYBLOCK
 62
     0
 10
168.08312292606081
 20
147.44592668535111
 30
0.0
  0
SEQEND
  5
255
  8
0
  6
BYBLOCK
 62
     0
  0
LINE
  5
9B
  8
0
  6
BYBLOCK
 62
     0
 10
163.7610679260608
 20
161.57334368535109
 30
0.0
 11
163.7610679260608
 21
174.74155368535111
 31
0.0
  0
ARC
  5
9C
  8
0
  6
BYBLOCK
 62
     0
 10
173.7610679260608
 20
161.57334368535109
 30
0.0
 40
10.0
 50
180.0
 51
194.25334099999941
  0
ARC
  5
9D
  8
0
  6
BYBLOCK
 62
     0
 10
162.2610679260608
 20
176.24155368535111
 30
0.0
 40
1.0
 50
270.0
 51
0.0
  0
LINE
  5
9E
  8
0
  6
BYBLOCK
 62
     0
 10
160.76109892606081
 20
174.74155368535111
 30
0.0
 11
160.76109892606081
 21
175.24155368535111
 31
0.0
  0
ARC
  5
9F
  8
0
  6
BYBLOCK
 62
     0
 10
180.70894092606079
 20
-114.7159033146488
 30
0.0
 40
300.0
 50
89.420939000000587
 51
97.257640999999623
  0
ARC
  5
A0
  8
0
  6
BYBLOCK
 62
     0
 10
145.81106792606079
 20
-200.75844331464879
 30
0.0
 40
400.0
 50
84.561752999999783
 51
90.429937999999467
  0
LINE
  5
A1
  8
0
  6
BYBLOCK
 62
     0
 10
175.5110679260608
 20
188.73871468535111
 30
0.0
 11
168.5110679260608
 21
188.73871468535111
 31
0.0
  0
LINE
  5
A2
  8
0
  6
BYBLOCK
 62
     0
 10
168.5110679260608
 20
193.73871468535111
 30
0.0
 11
175.5110679260608
 21
193.73871468535111
 31
0.0
  0
TEXT
  5
A3
  8
0
  6
BYBLOCK
 62
     0
 10
161.01106392606081
 20
188.5220676853512
 30
0.0
 40
6.0
  1
Éà
 50
90.000002999999325
 41
0.972222
  0
TEXT
  5
A4
  8
0
  6
BYBLOCK
 62
     0
 10
154.01106392606081
 20
188.5220676853512
 30
0.0
 40
6.0
  1
Å‗
 50
90.000002999999325
 41
0.972222
  0
LINE
  5
A5
  8
0
  6
BYBLOCK
 62
     0
 10
163.5110679260608
 20
191.23871468535111
 30
0.0
 11
168.5110679260608
 21
195.73871468535111
 31
0.0
  0
LINE
  5
A6
  8
0
  6
BYBLOCK
 62
     0
 10
163.5110679260608
 20
191.23871468535111
 30
0.0
 11
168.5110679260608
 21
186.73871468535111
 31
0.0
  0
LINE
  5
A7
  8
0
  6
BYBLOCK
 62
     0
 10
168.5110679260608
 20
186.73871468535111
 30
0.0
 11
168.5110679260608
 21
188.73871468535111
 31
0.0
  0
ARC
  5
A8
  8
0
  6
BYBLOCK
 62
     0
 10
160.2610679260608
 20
197.6520006853512
 30
0.0
 40
3.0
 50
23.99526199999962
 51
75.262796000000392
  0
LINE
  5
A9
  8
0
  6
BYBLOCK
 62
     0
 10
168.5110679260608
 20
195.73871468535111
 30
0.0
 11
168.5110679260608
 21
193.73871468535111
 31
0.0
  0
LINE
  5
AA
  8
0
  6
BYBLOCK
 62
     0
 10
185.32800892606079
 20
195.58408468535109
 30
0.0
 11
185.75831592606079
 21
187.3733446853511
 31
0.0
  0
LINE
  5
AB
  8
0
  6
BYBLOCK
 62
     0
 10
175.5110679260608
 20
193.73871468535111
 30
0.0
 11
175.5110679260608
 21
188.73871468535111
 31
0.0
  0
ARC
  5
AC
  8
0
  6
BYBLOCK
 62
     0
 10
183.7610569260608
 20
187.26867268535119
 30
0.0
 40
2.0
 50
269.42093900000049
 51
2.9999999999990901
  0
ARC
  5
AD
  8
0
  6
BYBLOCK
 62
     0
 10
183.3307499260608
 20
195.47941268535121
 30
0.0
 40
2.0
 50
2.9999999999990901
 51
90.410751999999391
  0
LINE
  5
AE
  8
0
  6
BYBLOCK
 62
     0
 10
362.49581892606068
 20
155.4459266853512
 30
0.0
 11
401.18646992606079
 21
155.4459266853512
 31
0.0
  0
ENDSEC
  0
EOF
