  0
SECTION
  2
HEADER
  9
$ACADVER
  1
AC1014
  9
$ACADMAINTVER
 70
     9
  9
$DWGCODEPAGE
  3
ANSI_932
  9
$INSBASE
 10
701.0045439333493
 20
735.6255489999998
 30
0.0
  9
$EXTMIN
 10
405.2323229333492
 20
660.6255489999999
 30
0.0
  9
$EXTMAX
 10
727.0045439333492
 20
761.6255489999998
 30
0.0
  9
$LIMMIN
 10
36.0
 20
25.5
  9
$LIMMAX
 10
1224.0
 20
865.4999999999999
  9
$ORTHOMODE
 70
     1
  9
$REGENMODE
 70
     1
  9
$FILLMODE
 70
     1
  9
$QTEXTMODE
 70
     0
  9
$MIRRTEXT
 70
     0
  9
$DRAGMODE
 70
     2
  9
$LTSCALE
 40
2.0
  9
$OSMODE
 70
   513
  9
$ATTMODE
 70
     1
  9
$TEXTSIZE
 40
0.2
  9
$TRACEWID
 40
0.05
  9
$TEXTSTYLE
  7
ｽﾀｲﾙ1
  9
$CLAYER
  8
0
  9
$CELTYPE
  6
CONTINUOUS
  9
$CECOLOR
 62
   256
  9
$CELTSCALE
 40
1.0
  9
$DELOBJ
 70
     1
  9
$DISPSILH
 70
     0
  9
$DIMSCALE
 40
3.0
  9
$DIMASZ
 40
2.0
  9
$DIMEXO
 40
2.0
  9
$DIMDLI
 40
7.0
  9
$DIMRND
 40
0.0
  9
$DIMDLE
 40
0.0
  9
$DIMEXE
 40
0.5
  9
$DIMTP
 40
0.0
  9
$DIMTM
 40
0.0
  9
$DIMTXT
 40
2.0
  9
$DIMCEN
 40
0.09
  9
$DIMTSZ
 40
0.0
  9
$DIMTOL
 70
     0
  9
$DIMLIM
 70
     0
  9
$DIMTIH
 70
     0
  9
$DIMTOH
 70
     0
  9
$DIMSE1
 70
     0
  9
$DIMSE2
 70
     0
  9
$DIMTAD
 70
     1
  9
$DIMZIN
 70
     8
  9
$DIMBLK
  1
OPEN
  9
$DIMASO
 70
     1
  9
$DIMSHO
 70
     1
  9
$DIMPOST
  1

  9
$DIMAPOST
  1

  9
$DIMALT
 70
     0
  9
$DIMALTD
 70
     2
  9
$DIMALTF
 40
0.03937
  9
$DIMLFAC
 40
1.0
  9
$DIMTOFL
 70
     1
  9
$DIMTVP
 40
0.0
  9
$DIMTIX
 70
     0
  9
$DIMSOXD
 70
     0
  9
$DIMSAH
 70
     0
  9
$DIMBLK1
  1

  9
$DIMBLK2
  1

  9
$DIMSTYLE
  2
G1
  9
$DIMCLRD
 70
     0
  9
$DIMCLRE
 70
     0
  9
$DIMCLRT
 70
     7
  9
$DIMTFAC
 40
1.0
  9
$DIMGAP
 40
0.8
  9
$DIMJUST
 70
     0
  9
$DIMSD1
 70
     0
  9
$DIMSD2
 70
     0
  9
$DIMTOLJ
 70
     1
  9
$DIMTZIN
 70
     0
  9
$DIMALTZ
 70
     0
  9
$DIMALTTZ
 70
     0
  9
$DIMFIT
 70
     3
  9
$DIMUPT
 70
     0
  9
$DIMUNIT
 70
     2
  9
$DIMDEC
 70
     2
  9
$DIMTDEC
 70
     2
  9
$DIMALTU
 70
     2
  9
$DIMALTTD
 70
     2
  9
$DIMTXSTY
  7
STANDARD
  9
$DIMAUNIT
 70
     0
  9
$LUNITS
 70
     2
  9
$LUPREC
 70
     4
  9
$SKETCHINC
 40
0.1
  9
$FILLETRAD
 40
5.0
  9
$AUNITS
 70
     0
  9
$AUPREC
 70
     0
  9
$MENU
  1
.
  9
$ELEVATION
 40
0.0
  9
$PELEVATION
 40
0.0
  9
$THICKNESS
 40
0.0
  9
$LIMCHECK
 70
     0
  9
$BLIPMODE
 70
     0
  9
$CHAMFERA
 40
0.0
  9
$CHAMFERB
 40
0.0
  9
$CHAMFERC
 40
0.0
  9
$CHAMFERD
 40
0.0
  9
$SKPOLY
 70
     0
  9
$TDCREATE
 40
2452110.000000000
  9
$TDUPDATE
 40
2453944.012240115
  9
$TDINDWG
 40
0.3289563194
  9
$TDUSRTIMER
 40
0.3289563194
  9
$USRTIMER
 70
     1
  9
$ANGBASE
 50
0.0
  9
$ANGDIR
 70
     0
  9
$PDMODE
 70
     3
  9
$PDSIZE
 40
0.0
  9
$PLINEWID
 40
0.0
  9
$COORDS
 70
     1
  9
$SPLFRAME
 70
     0
  9
$SPLINETYPE
 70
     6
  9
$SPLINESEGS
 70
     8
  9
$ATTDIA
 70
     0
  9
$ATTREQ
 70
     1
  9
$HANDLING
 70
 10241
  9
$HANDSEED
  5
1B3
  9
$SURFTAB1
 70
     6
  9
$SURFTAB2
 70
     6
  9
$SURFTYPE
 70
     6
  9
$SURFU
 70
     6
  9
$SURFV
 70
     6
  9
$UCSNAME
  2

  9
$UCSORG
 10
0.0
 20
0.0
 30
0.0
  9
$UCSXDIR
 10
1.0
 20
0.0
 30
0.0
  9
$UCSYDIR
 10
0.0
 20
1.0
 30
0.0
  9
$PUCSNAME
  2

  9
$PUCSORG
 10
0.0
 20
0.0
 30
0.0
  9
$PUCSXDIR
 10
1.0
 20
0.0
 30
0.0
  9
$PUCSYDIR
 10
0.0
 20
1.0
 30
0.0
  9
$USERI1
 70
     0
  9
$USERI2
 70
     0
  9
$USERI3
 70
     0
  9
$USERI4
 70
     0
  9
$USERI5
 70
     0
  9
$USERR1
 40
0.0
  9
$USERR2
 40
0.0
  9
$USERR3
 40
0.0
  9
$USERR4
 40
0.0
  9
$USERR5
 40
0.0
  9
$WORLDVIEW
 70
     1
  9
$SHADEDGE
 70
     3
  9
$SHADEDIF
 70
    70
  9
$TILEMODE
 70
     1
  9
$MAXACTVP
 70
    48
  9
$PINSBASE
 10
0.0
 20
0.0
 30
0.0
  9
$PLIMCHECK
 70
     0
  9
$PEXTMIN
 10
1.000000000000000E+20
 20
1.000000000000000E+20
 30
1.000000000000000E+20
  9
$PEXTMAX
 10
-1.000000000000000E+20
 20
-1.000000000000000E+20
 30
-1.000000000000000E+20
  9
$PLIMMIN
 10
0.0
 20
0.0
  9
$PLIMMAX
 10
12.0
 20
9.0
  9
$UNITMODE
 70
     0
  9
$VISRETAIN
 70
     1
  9
$PLINEGEN
 70
     0
  9
$PSLTSCALE
 70
     1
  9
$TREEDEPTH
 70
  3020
  9
$PICKSTYLE
 70
     1
  9
$CMLSTYLE
  2
STANDARD
  9
$CMLJUST
 70
     0
  9
$CMLSCALE
 40
1.0
  9
$PROXYGRAPHICS
 70
     1
  9
$MEASUREMENT
 70
     0
  0
ENDSEC
  0
SECTION
  2
CLASSES
  0
CLASS
  1
ACDBDICTIONARYWDFLT
  2
AcDbDictionaryWithDefault
  3
AutoCAD 2000
 90
        0
280
     0
281
     0
  0
CLASS
  1
ACDBPLACEHOLDER
  2
AcDbPlaceHolder
  3
AutoCAD 2000
 90
        0
280
     0
281
     0
  0
CLASS
  1
LAYOUT
  2
AcDbLayout
  3
AutoCAD 2000
 90
        0
280
     0
281
     0
  0
CLASS
  1
TABLESTYLE
  2
AcDbTableStyle
  3
ObjectDBX Classes
 90
     2047
280
     0
281
     0
  0
CLASS
  1
SORTENTSTABLE
  2
AcDbSortentsTable
  3
AutoCAD 2000
 90
        0
280
     0
281
     0
  0
CLASS
  1
DICTIONARYVAR
  2
AcDbDictionaryVar
  3
AutoCAD 2000
 90
        0
280
     0
281
     0
  0
CLASS
  1
ACAD_PROXY_OBJECT_WRAPPER
  2
AcDbProxyObjectWrapper
  3
AutoCAD 2000
 90
        0
280
     0
281
     0
  0
CLASS
  1
LONG_TRANSACTION
  2
AcDbLongTransaction
  3
AutoCAD 2000
 90
        0
280
     0
281
     0
  0
CLASS
  1
LWPOLYLINE
  2
AcDbPolyline
  3
AutoCAD 2000
 90
        0
280
     0
281
     1
  0
CLASS
  1
HATCH
  2
AcDbHatch
  3
AutoCAD 2000
 90
        0
280
     0
281
     1
  0
CLASS
  1
XRECORD
  2
AcDbXrecord
  3
AutoCAD 2000
 90
        0
280
     0
281
     0
  0
CLASS
  1
LONG_TRANSACTION
  2
AcDbLongTransaction
  3
AutoCAD 2000
 90
        0
280
     0
281
     0
  0
CLASS
  1
LWPOLYLINE
  2
AcDbPolyline
  3
AutoCAD 2000
 90
        0
280
     0
281
     1
  0
CLASS
  1
HATCH
  2
AcDbHatch
  3
AutoCAD 2000
 90
        0
280
     0
281
     1
  0
CLASS
  1
XRECORD
  2
AcDbXrecord
  3
AutoCAD 2000
 90
        0
280
     0
281
     0
  0
ENDSEC
  0
SECTION
  2
TABLES
  0
TABLE
  2
VPORT
  5
23
330
0
100
AcDbSymbolTable
 70
     2
  0
VPORT
  5
18F
330
23
100
AcDbSymbolTableRecord
100
AcDbViewportTableRecord
  2
*ACTIVE
 70
     0
 10
0.0
 20
0.0
 11
1.0
 21
1.0
 12
571.097683102636
 22
711.1082175970175
 13
0.0
 23
0.0
 14
1.0
 24
1.0
 15
0.0
 25
0.0
 16
0.0
 26
0.0
 36
1.0
 17
0.0
 27
0.0
 37
0.0
 40
172.6084169651445
 41
1.933867735470941
 42
50.0
 43
0.0
 44
0.0
 50
0.0
 51
0.0
 71
     0
 72
   100
 73
     1
 74
     1
 75
     0
 76
     0
 77
     0
 78
     0
  0
ENDTAB
  0
TABLE
  2
LTYPE
  5
1E
330
0
100
AcDbSymbolTable
 70
     2
  0
LTYPE
  5
1F
330
1E
100
AcDbSymbolTableRecord
100
AcDbLinetypeTableRecord
  2
BYBLOCK
 70
     0
  3

 72
    65
 73
     0
 40
0.0
  0
LTYPE
  5
20
330
1E
100
AcDbSymbolTableRecord
100
AcDbLinetypeTableRecord
  2
BYLAYER
 70
     0
  3

 72
    65
 73
     0
 40
0.0
  0
LTYPE
  5
C
330
1E
100
AcDbSymbolTableRecord
100
AcDbLinetypeTableRecord
  2
CONTINUOUS
 70
     0
  3
Solid line
 72
    65
 73
     0
 40
0.0
  0
LTYPE
  5
4F
330
1E
100
AcDbSymbolTableRecord
100
AcDbLinetypeTableRecord
  2
CENTER
 70
     0
  3
____ _ ____ _ ____ _ ____ _ ____ _ ____ _ ____
 72
    65
 73
     4
 40
10.6
 49
7.0
 74
     0
 49
-1.199999999999999
 74
     0
 49
1.199999999999999
 74
     0
 49
-1.199999999999999
 74
     0
  0
ENDTAB
  0
TABLE
  2
LAYER
  5
17
102
{ACAD_XDICTIONARY
360
18
102
}
330
0
100
AcDbSymbolTable
 70
     3
  0
LAYER
  5
7
330
17
100
AcDbSymbolTableRecord
100
AcDbLayerTableRecord
  2
0
 70
     0
 62
     7
  6
CONTINUOUS
  0
LAYER
  5
39
330
17
100
AcDbSymbolTableRecord
100
AcDbLayerTableRecord
  2
OUTLINE
 70
     0
 62
     7
  6
CONTINUOUS
1001
ACAECLAYERSTANDARD
1000

1000

  0
LAYER
  5
4E
330
17
100
AcDbSymbolTableRecord
100
AcDbLayerTableRecord
  2
CENTER
 70
     0
 62
     1
  6
CENTER
1001
ACAECLAYERSTANDARD
1000

1000

  0
ENDTAB
  0
TABLE
  2
STYLE
  5
1B
330
0
100
AcDbSymbolTable
 70
     2
  0
STYLE
  5
1C
330
1B
100
AcDbSymbolTableRecord
100
AcDbTextStyleTableRecord
  2
STANDARD
 70
     0
 40
0.0
 41
1.0
 50
0.0
 71
     0
 42
0.2
  3
romans.shx
  4
bigfont.shx
  0
STYLE
  5
35
330
1B
100
AcDbSymbolTableRecord
100
AcDbTextStyleTableRecord
  2
ｽﾀｲﾙ1
 70
     0
 40
0.0
 41
1.0
 50
0.0
 71
     0
 42
0.2
  3
MS PGothic.ttf
  4

1001
ACAD
1000
MS PGothic
1071
    32818
  0
ENDTAB
  0
TABLE
  2
VIEW
  5
21
330
0
100
AcDbSymbolTable
 70
     0
  0
ENDTAB
  0
TABLE
  2
UCS
  5
22
330
0
100
AcDbSymbolTable
 70
     0
  0
ENDTAB
  0
TABLE
  2
APPID
  5
25
330
0
100
AcDbSymbolTable
 70
     3
  0
APPID
  5
B
330
25
100
AcDbSymbolTableRecord
100
AcDbRegAppTableRecord
  2
ACAD
 70
     0
  0
APPID
  5
3A
330
25
100
AcDbSymbolTableRecord
100
AcDbRegAppTableRecord
  2
ACAECLAYERSTANDARD
 70
     0
  0
APPID
  5
10
330
25
100
AcDbSymbolTableRecord
100
AcDbRegAppTableRecord
  2
ACAD_PSEXT
 70
     0
  0
ENDTAB
  0
TABLE
  2
DIMSTYLE
  5
26
330
0
100
AcDbSymbolTable
 70
     1
  0
DIMSTYLE
105
27
330
26
100
AcDbSymbolTableRecord
100
AcDbDimStyleTableRecord
  2
G1
 70
     0
  3

  4

  5
OPEN
  6

  7

 40
3.0
 41
2.0
 42
2.0
 43
7.0
 44
0.5
 45
0.0
 46
0.0
 47
0.0
 48
0.0
140
2.0
141
0.09
142
0.0
143
0.03937
144
1.0
145
0.0
146
1.0
147
0.8
 71
     0
 72
     0
 73
     0
 74
     0
 75
     0
 76
     0
 77
     1
 78
     8
170
     0
171
     2
172
     1
173
     0
174
     0
175
     0
176
     0
177
     0
178
     7
270
     2
271
     2
272
     2
273
     2
274
     2
340
1C
275
     0
280
     0
281
     0
282
     0
283
     1
284
     0
285
     0
286
     0
287
     3
288
     0
  0
ENDTAB
  0
TABLE
  2
BLOCK_RECORD
  5
1
330
0
100
AcDbSymbolTable
 70
     1
  0
BLOCK_RECORD
  5
2
102
{ACAD_XDICTIONARY
360
3
102
}
330
1
100
AcDbSymbolTableRecord
100
AcDbBlockTableRecord
  2
*MODEL_SPACE
  0
BLOCK_RECORD
  5
11
102
{ACAD_XDICTIONARY
360
12
102
}
330
1
100
AcDbSymbolTableRecord
100
AcDbBlockTableRecord
  2
*PAPER_SPACE
  0
BLOCK_RECORD
  5
28
330
1
100
AcDbSymbolTableRecord
100
AcDbBlockTableRecord
  2
_OPEN
  0
ENDTAB
  0
ENDSEC
  0
SECTION
  2
BLOCKS
  0
BLOCK
  5
6
330
2
100
AcDbEntity
  8
0
100
AcDbBlockBegin
  2
*MODEL_SPACE
 70
     0
 10
0.0
 20
0.0
 30
0.0
  3
*MODEL_SPACE
  1

  0
ENDBLK
  5
D
330
2
100
AcDbEntity
  8
0
100
AcDbBlockEnd
  0
BLOCK
  5
14
330
11
100
AcDbEntity
 67
     1
  8
0
100
AcDbBlockBegin
  2
*PAPER_SPACE
 70
     0
 10
0.0
 20
0.0
 30
0.0
  3
*PAPER_SPACE
  1

  0
ENDBLK
  5
15
330
11
100
AcDbEntity
 67
     1
  8
0
100
AcDbBlockEnd
  0
BLOCK
  5
29
330
28
100
AcDbEntity
  8
0
100
AcDbBlockBegin
  2
_OPEN
 70
     0
 10
0.0
 20
0.0
 30
0.0
  3
_OPEN
  1

  0
LINE
  5
2A
330
28
100
AcDbEntity
  8
0
 62
     0
100
AcDbLine
 10
-0.9659259999999999
 20
0.258819
 30
0.0
 11
0.0
 21
0.0
 31
0.0
  0
LINE
  5
2B
330
28
100
AcDbEntity
  8
0
 62
     0
100
AcDbLine
 10
0.0
 20
0.0
 30
0.0
 11
-0.9659259999999999
 21
-0.258819
 31
0.0
  0
LINE
  5
2C
330
28
100
AcDbEntity
  8
0
 62
     0
100
AcDbLine
 10
0.0
 20
0.0
 30
0.0
 11
-1.0
 21
0.0
 31
0.0
  0
ENDBLK
  5
2D
330
28
100
AcDbEntity
  8
0
100
AcDbBlockEnd
  0
ENDSEC
  0
SECTION
  2
ENTITIES
  0
LINE
  5
38
330
2
100
AcDbEntity
  8
OUTLINE
100
AcDbLine
 10
479.6780979333491
 20
719.407918
 30
0.0
 11
487.8257349333491
 21
719.2142119999998
 31
0.0
  0
LINE
  5
3B
330
2
100
AcDbEntity
  8
OUTLINE
100
AcDbLine
 10
479.6780979333491
 20
751.843181
 30
0.0
 11
487.8257349333491
 21
752.0368869999998
 31
0.0
  0
LINE
  5
3C
330
2
100
AcDbEntity
  8
OUTLINE
100
AcDbLine
 10
560.8657749333493
 20
753.886075
 30
0.0
 11
474.7984419333491
 21
752.608234
 31
0.0
  0
LINE
  5
3D
330
2
100
AcDbEntity
  8
OUTLINE
100
AcDbLine
 10
560.8657749333493
 20
717.3650239999998
 30
0.0
 11
474.7984419333491
 21
718.642865
 31
0.0
  0
LINE
  5
3E
330
2
100
AcDbEntity
  8
OUTLINE
100
AcDbLine
 10
418.0922299333491
 20
749.368055
 30
0.0
 11
561.7300789333492
 21
752.5729669999998
 31
0.0
  0
LINE
  5
3F
330
2
100
AcDbEntity
  8
OUTLINE
100
AcDbLine
 10
418.0922299333491
 20
721.8830439999997
 30
0.0
 11
561.7300789333492
 21
718.678131
 31
0.0
  0
LINE
  5
40
330
2
100
AcDbEntity
  8
OUTLINE
100
AcDbLine
 10
434.9851269333491
 20
737.9601179999998
 30
0.0
 11
434.9851269333491
 21
733.253601
 31
0.0
  0
CIRCLE
  5
41
330
2
100
AcDbEntity
  8
OUTLINE
100
AcDbCircle
 10
429.5642689333491
 20
737.138118
 30
0.0
 40
0.513664
  0
CIRCLE
  5
42
330
2
100
AcDbEntity
  8
OUTLINE
100
AcDbCircle
 10
430.9784809333491
 20
737.138118
 30
0.0
 40
0.5140080000000001
  0
LINE
  5
43
330
2
100
AcDbEntity
  8
OUTLINE
100
AcDbLine
 10
435.8935989333491
 20
738.3252979999999
 30
0.0
 11
435.8935989333491
 21
732.925628
 31
0.0
  0
LINE
  5
44
330
2
100
AcDbEntity
  8
OUTLINE
100
AcDbLine
 10
422.8976649333492
 20
737.3365559999998
 30
0.0
 11
422.8976649333492
 21
733.949338
 31
0.0
  0
LINE
  5
45
330
2
100
AcDbEntity
  8
OUTLINE
100
AcDbLine
 10
433.5798729333491
 20
733.949338
 30
0.0
 11
433.5798729333491
 21
737.3365559999998
 31
0.0
  0
LINE
  5
46
330
2
100
AcDbEntity
  8
OUTLINE
100
AcDbLine
 10
425.4460019333491
 20
733.2542899999999
 30
0.0
 11
425.4460019333491
 21
737.9601179999998
 31
0.0
  0
ARC
  5
47
330
2
100
AcDbEntity
  8
OUTLINE
100
AcDbCircle
 10
424.9957829333491
 20
735.5831779999999
 30
0.0
 40
8.286994999999999
100
AcDbArc
 50
162.4920800000029
 51
179.7070459999959
  0
CIRCLE
  5
48
330
2
100
AcDbEntity
  8
OUTLINE
100
AcDbCircle
 10
432.3926929333492
 20
737.138118
 30
0.0
 40
0.513664
  0
LINE
  5
49
330
2
100
AcDbEntity
  8
OUTLINE
100
AcDbLine
 10
414.5888679333491
 20
739.381836
 30
0.0
 11
414.3808369333491
 21
735.6494589999998
 31
0.0
  0
LINE
  5
4A
330
2
100
AcDbEntity
  8
OUTLINE
100
AcDbLine
 10
412.4347789333491
 20
736.8693059999999
 30
0.0
 11
412.4135429333491
 21
735.3840219999998
 31
0.0
  0
ARC
  5
4B
330
2
100
AcDbEntity
  8
OUTLINE
100
AcDbCircle
 10
443.2323229333491
 20
735.6255489999998
 30
0.0
 40
36.0
100
AcDbArc
 50
162.2084090000009
 51
197.791590999999
  0
ARC
  5
4C
330
2
100
AcDbEntity
  8
OUTLINE
100
AcDbCircle
 10
441.2323229333491
 20
735.6255489999998
 30
0.0
 40
36.0
100
AcDbArc
 50
164.6990589999985
 51
195.3009410000013
  0
LINE
  5
50
330
2
100
AcDbEntity
  8
OUTLINE
100
AcDbLine
 10
437.6105189333491
 20
713.995679
 30
0.0
 11
435.4719029333491
 21
714.242823
 31
0.0
  0
LINE
  5
51
330
2
100
AcDbEntity
  8
OUTLINE
100
AcDbLine
 10
437.7263399333491
 20
713.9609839999998
 30
0.0
 11
436.6063649333491
 21
714.10517
 31
0.0
  0
LINE
  5
52
330
2
100
AcDbEntity
  8
OUTLINE
100
AcDbLine
 10
473.0877709333491
 20
719.0966449999998
 30
0.0
 11
417.4964909333491
 21
720.6942599999998
 31
0.0
  0
LINE
  5
53
330
2
100
AcDbEntity
  8
OUTLINE
100
AcDbLine
 10
414.4794049333491
 20
723.7576799999998
 30
0.0
 11
413.8763039333491
 21
725.5307419999998
 31
0.0
  0
LINE
  5
54
330
2
100
AcDbEntity
  8
OUTLINE
100
AcDbLine
 10
408.9540499333491
 20
724.625549
 30
0.0
 11
414.1391059333491
 21
724.625549
 31
0.0
  0
LINE
  5
55
330
2
100
AcDbEntity
  8
OUTLINE
100
AcDbLine
 10
408.9540499333491
 20
724.625549
 30
0.0
 11
406.5084119333492
 21
726.1255489999999
 31
0.0
  0
LINE
  5
56
330
2
100
AcDbEntity
  8
OUTLINE
100
AcDbLine
 10
413.2536509333491
 20
727.9414859999998
 30
0.0
 11
412.8555199333491
 21
730.0349309999999
 31
0.0
  0
LINE
  5
57
330
2
100
AcDbEntity
  8
OUTLINE
100
AcDbLine
 10
412.4959619333491
 20
733.2000559999999
 30
0.0
 11
412.4347789333491
 21
734.381793
 31
0.0
  0
LINE
  5
58
330
2
100
AcDbEntity
  8
OUTLINE
100
AcDbLine
 10
413.8763039333491
 20
725.5307419999998
 30
0.0
 11
413.2536509333491
 21
727.9414859999998
 31
0.0
  0
LINE
  5
59
330
2
100
AcDbEntity
  8
OUTLINE
100
AcDbLine
 10
412.4347789333491
 20
734.381793
 30
0.0
 11
412.4135429333491
 21
735.8670759999998
 31
0.0
  0
LINE
  5
5A
330
2
100
AcDbEntity
  8
OUTLINE
100
AcDbLine
 10
412.8555199333491
 20
730.0349309999999
 30
0.0
 11
412.6204469333491
 21
731.7916069999998
 31
0.0
  0
LINE
  5
5B
330
2
100
AcDbEntity
  8
OUTLINE
100
AcDbLine
 10
412.6204469333491
 20
731.7916069999998
 30
0.0
 11
412.4959619333491
 21
733.2000559999999
 31
0.0
  0
LINE
  5
5C
330
2
100
AcDbEntity
  8
OUTLINE
100
AcDbLine
 10
435.4433249333491
 20
732.475698
 30
0.0
 11
418.0449039333491
 21
732.475698
 31
0.0
  0
LINE
  5
5D
330
2
100
AcDbEntity
  8
OUTLINE
100
AcDbLine
 10
426.3781069333491
 20
716.3716289999999
 30
0.0
 11
423.6339449333491
 21
717.3078059999999
 31
0.0
  0
LINE
  5
5E
330
2
100
AcDbEntity
  8
OUTLINE
100
AcDbLine
 10
417.0728469333491
 20
720.3205
 30
0.0
 11
415.8967579333491
 21
721.405394
 31
0.0
  0
LINE
  5
5F
330
2
100
AcDbEntity
  8
OUTLINE
100
AcDbLine
 10
417.7951049333491
 20
721.2900900000001
 30
0.0
 11
417.2344579333492
 21
720.17142
 31
0.0
  0
LINE
  5
60
330
2
100
AcDbEntity
  8
OUTLINE
100
AcDbLine
 10
420.6153529333491
 20
718.5053429999999
 30
0.0
 11
418.5209739333491
 21
719.477174
 31
0.0
  0
LINE
  5
61
330
2
100
AcDbEntity
  8
OUTLINE
100
AcDbLine
 10
418.4683399333492
 20
719.4753989999997
 30
0.0
 11
417.7428069333491
 21
719.866696
 31
0.0
  0
LINE
  5
62
330
2
100
AcDbEntity
  8
OUTLINE
100
AcDbLine
 10
417.7428069333491
 20
719.866696
 30
0.0
 11
417.0728469333491
 21
720.3205
 31
0.0
  0
LINE
  5
63
330
2
100
AcDbEntity
  8
OUTLINE
100
AcDbLine
 10
418.4117859333492
 20
719.5423550000001
 30
0.0
 11
418.5091709333491
 21
719.468067
 31
0.0
  0
LINE
  5
64
330
2
100
AcDbEntity
  8
OUTLINE
100
AcDbLine
 10
418.5091709333491
 20
719.468067
 30
0.0
 11
418.5147529333491
 21
719.4638089999998
 31
0.0
  0
LINE
  5
65
330
2
100
AcDbEntity
  8
OUTLINE
100
AcDbLine
 10
418.5388449333491
 20
719.445431
 30
0.0
 11
418.6788829333491
 21
719.403901
 31
0.0
  0
LINE
  5
66
330
2
100
AcDbEntity
  8
OUTLINE
100
AcDbLine
 10
423.6339449333491
 20
717.3078059999999
 30
0.0
 11
420.6153529333491
 21
718.5053429999999
 31
0.0
  0
LINE
  5
67
330
2
100
AcDbEntity
  8
OUTLINE
100
AcDbLine
 10
418.9047989333491
 20
736.1390409999998
 30
0.0
 11
421.7325339333491
 21
736.1390409999998
 31
0.0
  0
LINE
  5
68
330
2
100
AcDbEntity
  8
OUTLINE
100
AcDbLine
 10
421.7325339333491
 20
735.111541
 30
0.0
 11
418.9047989333491
 21
735.111541
 31
0.0
  0
LINE
  5
69
330
2
100
AcDbEntity
  8
OUTLINE
100
AcDbLine
 10
414.9624589333491
 20
722.6967939999998
 30
0.0
 11
414.4794049333491
 21
723.7576799999998
 31
0.0
  0
LINE
  5
6A
330
2
100
AcDbEntity
  8
OUTLINE
100
AcDbLine
 10
415.8967579333491
 20
721.405394
 30
0.0
 11
414.9624589333491
 21
722.6967939999998
 31
0.0
  0
LINE
  5
6B
330
2
100
AcDbEntity
  8
OUTLINE
100
AcDbLine
 10
418.0922119333492
 20
721.883008
 30
0.0
 11
417.6537209333491
 21
721.9623899999998
 31
0.0
  0
LINE
  5
6C
330
2
100
AcDbEntity
  8
OUTLINE
100
AcDbLine
 10
417.2819379333491
 20
722.189386
 30
0.0
 11
416.9922429333491
 21
722.5278939999998
 31
0.0
  0
LINE
  5
6D
330
2
100
AcDbEntity
  8
OUTLINE
100
AcDbLine
 10
417.6537209333491
 20
721.9623899999998
 30
0.0
 11
417.2819379333491
 21
722.189386
 31
0.0
  0
LINE
  5
6E
330
2
100
AcDbEntity
  8
OUTLINE
100
AcDbLine
 10
416.7800399333491
 20
722.9152889999999
 30
0.0
 11
416.2100259333491
 21
724.585143
 31
0.0
  0
LINE
  5
6F
330
2
100
AcDbEntity
  8
OUTLINE
100
AcDbLine
 10
416.9922429333491
 20
722.5278939999998
 30
0.0
 11
416.7800399333491
 21
722.9152889999999
 31
0.0
  0
ARC
  5
70
330
2
100
AcDbEntity
  8
OUTLINE
100
AcDbCircle
 10
418.9042519333491
 20
735.62558
 30
0.0
 40
0.513461
100
AcDbArc
 50
89.9389619999992
 51
180.0034060000008
  0
ARC
  5
71
330
2
100
AcDbEntity
  8
OUTLINE
100
AcDbCircle
 10
424.8728609333491
 20
735.645393
 30
0.0
 40
8.163989
100
AcDbArc
 50
180.1392640000014
 51
197.6703050000004
  0
ARC
  5
72
330
2
100
AcDbEntity
  8
OUTLINE
100
AcDbCircle
 10
418.0405619333491
 20
733.469163
 30
0.0
 40
0.9934749999999999
100
AcDbArc
 50
197.6886820000002
 51
270.2504000000025
  0
ARC
  5
73
330
2
100
AcDbEntity
  8
OUTLINE
100
AcDbCircle
 10
418.9042529333491
 20
735.625002
 30
0.0
 40
0.513462
100
AcDbArc
 50
179.9389839999968
 51
270.061016000003
  0
LINE
  5
74
330
2
100
AcDbEntity
  8
OUTLINE
100
AcDbLine
 10
414.3193809333491
 20
724.1767519999998
 30
0.0
 11
414.3491159333491
 21
724.1331179999998
 31
0.0
  0
LINE
  5
75
330
2
100
AcDbEntity
  8
OUTLINE
100
AcDbLine
 10
418.0922119333492
 20
721.883008
 30
0.0
 11
417.7951049333491
 21
721.2900900000001
 31
0.0
  0
LINE
  5
76
330
2
100
AcDbEntity
  8
OUTLINE
100
AcDbLine
 10
414.5888679333491
 20
731.8692629999998
 30
0.0
 11
414.3808369333491
 21
735.6016389999998
 31
0.0
  0
LINE
  5
77
330
2
100
AcDbEntity
  8
OUTLINE
100
AcDbLine
 10
416.2100259333491
 20
724.585143
 30
0.0
 11
415.2001209333491
 21
728.1806919999998
 31
0.0
  0
LINE
  5
78
330
2
100
AcDbEntity
  8
OUTLINE
100
AcDbLine
 10
415.2001209333491
 20
728.1806919999998
 30
0.0
 11
414.5888679333491
 21
731.8692629999998
 31
0.0
  0
LINE
  5
79
330
2
100
AcDbEntity
  8
OUTLINE
100
AcDbLine
 10
417.4434769333491
 20
720.5949919999998
 30
0.0
 11
417.3967809333491
 21
720.515617
 31
0.0
  0
LINE
  5
7A
330
2
100
AcDbEntity
  8
OUTLINE
100
AcDbLine
 10
417.4978609333491
 20
720.696993
 30
0.0
 11
417.4434769333491
 21
720.5949919999998
 31
0.0
  0
LINE
  5
7B
330
2
100
AcDbEntity
  8
OUTLINE
100
AcDbLine
 10
417.3607909333491
 20
720.462983
 30
0.0
 11
417.3384919333491
 21
720.4409409999998
 31
0.0
  0
LINE
  5
7C
330
2
100
AcDbEntity
  8
OUTLINE
100
AcDbLine
 10
417.3967809333491
 20
720.515617
 30
0.0
 11
417.3607909333491
 21
720.462983
 31
0.0
  0
LINE
  5
7D
330
2
100
AcDbEntity
  8
OUTLINE
100
AcDbLine
 10
424.6836029333492
 20
733.7329859999998
 30
0.0
 11
424.6836029333492
 21
733.2542899999999
 31
0.0
  0
LINE
  5
7E
330
2
100
AcDbEntity
  8
OUTLINE
100
AcDbLine
 10
424.9002989333491
 20
733.0377659999998
 30
0.0
 11
425.2299949333491
 21
733.0377659999998
 31
0.0
  0
LINE
  5
7F
330
2
100
AcDbEntity
  8
OUTLINE
100
AcDbLine
 10
423.1143619333491
 20
733.7329859999998
 30
0.0
 11
424.6836029333492
 21
733.7329859999998
 31
0.0
  0
ARC
  5
80
330
2
100
AcDbEntity
  8
OUTLINE
100
AcDbCircle
 10
421.7328609333491
 20
735.625359
 30
0.0
 40
0.5136820000000001
100
AcDbArc
 50
0.021190000003654
 51
90.03644199999781
  0
ARC
  5
81
330
2
100
AcDbEntity
  8
OUTLINE
100
AcDbCircle
 10
424.9004349333492
 20
733.2545979999999
 30
0.0
 40
0.216833
100
AcDbArc
 50
180.0814699999963
 51
269.9640940000014
  0
ARC
  5
82
330
2
100
AcDbEntity
  8
OUTLINE
100
AcDbCircle
 10
421.7328609333491
 20
735.625222
 30
0.0
 40
0.5136820000000001
100
AcDbArc
 50
269.9635639999988
 51
0.0364360000011899
  0
ARC
  5
83
330
2
100
AcDbEntity
  8
OUTLINE
100
AcDbCircle
 10
423.1144869333491
 20
733.9498079999998
 30
0.0
 40
0.216822
100
AcDbArc
 50
180.124232
 51
269.966930000001
  0
ARC
  5
84
330
2
100
AcDbEntity
  8
OUTLINE
100
AcDbCircle
 10
425.2293979333491
 20
733.254369
 30
0.0
 40
0.216604
100
AcDbArc
 50
270.1577729999979
 51
359.9791339999973
  0
LINE
  5
85
330
2
100
AcDbEntity
  8
OUTLINE
100
AcDbLine
 10
432.8395849333491
 20
714.7314809999999
 30
0.0
 11
430.9677489333491
 21
715.1276479999998
 31
0.0
  0
LINE
  5
86
330
2
100
AcDbEntity
  8
OUTLINE
100
AcDbLine
 10
428.8279169333491
 20
715.6579019999997
 30
0.0
 11
426.3781069333491
 21
716.3716289999999
 31
0.0
  0
LINE
  5
87
330
2
100
AcDbEntity
  8
OUTLINE
100
AcDbLine
 10
430.9677489333491
 20
715.1276479999998
 30
0.0
 11
428.8279169333491
 21
715.6579019999997
 31
0.0
  0
LINE
  5
88
330
2
100
AcDbEntity
  8
OUTLINE
100
AcDbLine
 10
435.4178219333491
 20
714.279083
 30
0.0
 11
434.1617779333491
 21
714.4864169999998
 31
0.0
  0
LINE
  5
89
330
2
100
AcDbEntity
  8
OUTLINE
100
AcDbLine
 10
434.1617779333491
 20
714.4864169999998
 30
0.0
 11
432.8395849333491
 21
714.7314809999999
 31
0.0
  0
CIRCLE
  5
8A
330
2
100
AcDbEntity
  8
OUTLINE
100
AcDbCircle
 10
430.9784809333491
 20
734.1117739999998
 30
0.0
 40
0.5140080000000001
  0
CIRCLE
  5
8B
330
2
100
AcDbEntity
  8
OUTLINE
100
AcDbCircle
 10
430.9784809333491
 20
735.6255489999998
 30
0.0
 40
0.5140080000000001
  0
CIRCLE
  5
8C
330
2
100
AcDbEntity
  8
OUTLINE
100
AcDbCircle
 10
429.5642689333491
 20
734.1117739999998
 30
0.0
 40
0.513664
  0
CIRCLE
  5
8D
330
2
100
AcDbEntity
  8
OUTLINE
100
AcDbCircle
 10
429.5642689333491
 20
735.6255489999998
 30
0.0
 40
0.513664
  0
LINE
  5
8E
330
2
100
AcDbEntity
  8
OUTLINE
100
AcDbLine
 10
434.7687749333491
 20
733.0377659999998
 30
0.0
 11
434.4387349333492
 21
733.0377659999998
 31
0.0
  0
CIRCLE
  5
8F
330
2
100
AcDbEntity
  8
OUTLINE
100
AcDbCircle
 10
432.3926929333492
 20
734.1117739999998
 30
0.0
 40
0.513664
  0
LINE
  5
90
330
2
100
AcDbEntity
  8
OUTLINE
100
AcDbLine
 10
434.2230719333492
 20
733.253601
 30
0.0
 11
434.2230719333492
 21
733.7329859999998
 31
0.0
  0
LINE
  5
91
330
2
100
AcDbEntity
  8
OUTLINE
100
AcDbLine
 10
434.2230719333492
 20
733.7329859999998
 30
0.0
 11
433.7962249333491
 21
733.7329859999998
 31
0.0
  0
ARC
  5
92
330
2
100
AcDbEntity
  8
OUTLINE
100
AcDbCircle
 10
434.4388969333492
 20
733.2535909999997
 30
0.0
 40
0.215825
100
AcDbArc
 50
180.0
 51
269.9568940000032
  0
ARC
  5
93
330
2
100
AcDbEntity
  8
OUTLINE
100
AcDbCircle
 10
435.4433679333491
 20
732.92593
 30
0.0
 40
0.4502310000000002
100
AcDbArc
 50
269.9945710000004
 51
359.9615750000006
  0
ARC
  5
94
330
2
100
AcDbEntity
  8
OUTLINE
100
AcDbCircle
 10
433.7964289333491
 20
733.9495419999998
 30
0.0
 40
0.216556
100
AcDbArc
 50
180.054045999998
 51
269.9459540000019
  0
ARC
  5
95
330
2
100
AcDbEntity
  8
OUTLINE
100
AcDbCircle
 10
434.7686999333491
 20
733.2541939999998
 30
0.0
 40
0.216428
100
AcDbArc
 50
270.0199720000004
 51
359.8430110000019
  0
CIRCLE
  5
96
330
2
100
AcDbEntity
  8
OUTLINE
100
AcDbCircle
 10
432.3926929333492
 20
735.6255489999998
 30
0.0
 40
0.513664
  0
LINE
  5
97
330
2
100
AcDbEntity
  8
OUTLINE
100
AcDbLine
 10
463.0235219333491
 20
716.6696379999998
 30
0.0
 11
458.2324129333492
 21
715.2749289999998
 31
0.0
  0
LINE
  5
98
330
2
100
AcDbEntity
  8
OUTLINE
100
AcDbLine
 10
453.3245859333491
 20
714.2843679999998
 30
0.0
 11
448.3456869333491
 21
713.7147589999998
 31
0.0
  0
LINE
  5
99
330
2
100
AcDbEntity
  8
OUTLINE
100
AcDbLine
 10
444.2392619333491
 20
713.568352
 30
0.0
 11
439.8418739333491
 21
713.7378189999998
 31
0.0
  0
LINE
  5
9A
330
2
100
AcDbEntity
  8
OUTLINE
100
AcDbLine
 10
440.4071529333491
 20
713.697492
 30
0.0
 11
440.3719499333491
 21
713.6997459999999
 31
0.0
  0
LINE
  5
9B
330
2
100
AcDbEntity
  8
OUTLINE
100
AcDbLine
 10
440.3719499333491
 20
713.6997459999999
 30
0.0
 11
440.0093489333491
 21
713.731364
 31
0.0
  0
LINE
  5
9C
330
2
100
AcDbEntity
  8
OUTLINE
100
AcDbLine
 10
439.8418739333491
 20
713.7378189999998
 30
0.0
 11
437.6105189333491
 21
713.995679
 31
0.0
  0
LINE
  5
9D
330
2
100
AcDbEntity
  8
OUTLINE
100
AcDbLine
 10
439.5545669333492
 20
713.7710199999998
 30
0.0
 11
439.1115649333491
 21
713.809649
 31
0.0
  0
LINE
  5
9E
330
2
100
AcDbEntity
  8
OUTLINE
100
AcDbLine
 10
439.1115649333491
 20
713.809649
 30
0.0
 11
437.7263399333491
 21
713.9609839999998
 31
0.0
  0
LINE
  5
9F
330
2
100
AcDbEntity
  8
OUTLINE
100
AcDbLine
 10
448.3456869333491
 20
713.7147589999998
 30
0.0
 11
444.2392619333491
 21
713.568352
 31
0.0
  0
LINE
  5
A0
330
2
100
AcDbEntity
  8
OUTLINE
100
AcDbLine
 10
458.2324129333492
 20
715.2749289999998
 30
0.0
 11
453.3245859333491
 21
714.2843679999998
 31
0.0
  0
LINE
  5
A1
330
2
100
AcDbEntity
  8
OUTLINE
100
AcDbLine
 10
471.7827159333491
 20
718.8927969999999
 30
0.0
 11
472.5310589333491
 21
719.0096869999998
 31
0.0
  0
LINE
  5
A2
330
2
100
AcDbEntity
  8
OUTLINE
100
AcDbLine
 10
474.7674059333491
 20
718.629124
 30
0.0
 11
471.5687709333491
 21
718.488385
 31
0.0
  0
LINE
  5
A3
330
2
100
AcDbEntity
  8
OUTLINE
100
AcDbLine
 10
464.0286379333491
 20
716.997876
 30
0.0
 11
467.8679509333491
 21
718.078032
 31
0.0
  0
LINE
  5
A4
330
2
100
AcDbEntity
  8
OUTLINE
100
AcDbLine
 10
463.0235219333491
 20
716.6696379999998
 30
0.0
 11
463.0037549333492
 21
716.6807309999998
 31
0.0
  0
LINE
  5
A5
330
2
100
AcDbEntity
  8
OUTLINE
100
AcDbLine
 10
464.0286379333491
 20
716.997876
 30
0.0
 11
464.0093709333491
 21
717.0096929999998
 31
0.0
  0
LINE
  5
A6
330
2
100
AcDbEntity
  8
OUTLINE
100
AcDbLine
 10
464.0093709333491
 20
717.0096929999998
 30
0.0
 11
464.0085129333491
 21
717.011109
 31
0.0
  0
LINE
  5
A7
330
2
100
AcDbEntity
  8
OUTLINE
100
AcDbLine
 10
463.2867049333491
 20
716.757509
 30
0.0
 11
463.2673599333491
 21
716.7687589999998
 31
0.0
  0
LINE
  5
A8
330
2
100
AcDbEntity
  8
OUTLINE
100
AcDbLine
 10
463.2867049333491
 20
716.757509
 30
0.0
 11
464.0286379333491
 21
716.997876
 31
0.0
  0
LINE
  5
A9
330
2
100
AcDbEntity
  8
OUTLINE
100
AcDbLine
 10
463.0249179333492
 20
716.6701119999999
 30
0.0
 11
463.2867049333491
 21
716.757509
 31
0.0
  0
LINE
  5
AA
330
2
100
AcDbEntity
  8
OUTLINE
100
AcDbLine
 10
463.0249179333492
 20
716.6701119999999
 30
0.0
 11
463.0235219333491
 21
716.6696379999998
 31
0.0
  0
LINE
  5
AB
330
2
100
AcDbEntity
  8
OUTLINE
100
AcDbLine
 10
468.1247599333491
 20
718.0611219999998
 30
0.0
 11
467.6352329333491
 21
717.9765859999998
 31
0.0
  0
LINE
  5
AC
330
2
100
AcDbEntity
  8
OUTLINE
100
AcDbLine
 10
467.6352329333491
 20
717.9765859999998
 30
0.0
 11
467.2844959333491
 21
717.913882
 31
0.0
  0
LINE
  5
AD
330
2
100
AcDbEntity
  8
OUTLINE
100
AcDbLine
 10
471.7827159333491
 20
718.8927969999999
 30
0.0
 11
471.7951339333492
 21
718.9195939999998
 31
0.0
  0
LINE
  5
AE
330
2
100
AcDbEntity
  8
OUTLINE
100
AcDbLine
 10
467.8679509333491
 20
718.078032
 30
0.0
 11
471.7827189333491
 21
718.8927819999999
 31
0.0
  0
LINE
  5
AF
330
2
100
AcDbEntity
  8
OUTLINE
100
AcDbLine
 10
468.2937929333491
 20
718.084451
 30
0.0
 11
466.7738479333491
 21
717.7702159999999
 31
0.0
  0
LINE
  5
B0
330
2
100
AcDbEntity
  8
OUTLINE
100
AcDbLine
 10
471.5687709333491
 20
718.488385
 30
0.0
 11
468.2937929333491
 21
718.084451
 31
0.0
  0
LINE
  5
B1
330
2
100
AcDbEntity
  8
OUTLINE
100
AcDbLine
 10
477.6963919333491
 20
719.4151139999997
 30
0.0
 11
478.3532609333491
 21
719.421694
 31
0.0
  0
LINE
  5
B2
330
2
100
AcDbEntity
  8
OUTLINE
100
AcDbLine
 10
475.7321519333491
 20
719.3374089999998
 30
0.0
 11
476.3861899333491
 21
719.3732299999997
 31
0.0
  0
LINE
  5
B3
330
2
100
AcDbEntity
  8
OUTLINE
100
AcDbLine
 10
473.2703009333492
 20
719.1088479999998
 30
0.0
 11
474.0052179333491
 21
719.192999
 31
0.0
  0
LINE
  5
B4
330
2
100
AcDbEntity
  8
OUTLINE
100
AcDbLine
 10
474.0052179333491
 20
719.192999
 30
0.0
 11
475.7321519333491
 21
719.3374089999998
 31
0.0
  0
LINE
  5
B5
330
2
100
AcDbEntity
  8
OUTLINE
100
AcDbLine
 10
472.5310589333491
 20
719.0096869999998
 30
0.0
 11
473.2703009333492
 21
719.1088479999998
 31
0.0
  0
LINE
  5
B6
330
2
100
AcDbEntity
  8
OUTLINE
100
AcDbLine
 10
476.3861899333491
 20
719.3732299999997
 30
0.0
 11
477.0408229333491
 21
719.3990519999998
 31
0.0
  0
LINE
  5
B7
330
2
100
AcDbEntity
  8
OUTLINE
100
AcDbLine
 10
477.0408229333491
 20
719.3990519999998
 30
0.0
 11
477.6963919333491
 21
719.4151139999997
 31
0.0
  0
LINE
  5
B8
330
2
100
AcDbEntity
  8
OUTLINE
100
AcDbLine
 10
474.7984479333491
 20
718.6428659999997
 30
0.0
 11
474.7681099333491
 21
718.6426859999998
 31
0.0
  0
LINE
  5
B9
330
2
100
AcDbEntity
  8
OUTLINE
100
AcDbLine
 10
479.0118129333492
 20
719.4191459999998
 30
0.0
 11
479.6749779333492
 21
719.4080559999998
 31
0.0
  0
LINE
  5
BA
330
2
100
AcDbEntity
  8
OUTLINE
100
AcDbLine
 10
478.3532609333491
 20
719.421694
 30
0.0
 11
479.0118129333492
 21
719.4191459999998
 31
0.0
  0
LINE
  5
BB
330
2
100
AcDbEntity
  8
OUTLINE
100
AcDbLine
 10
437.6105189333491
 20
757.2554199999999
 30
0.0
 11
435.4719029333491
 21
757.008276
 31
0.0
  0
LINE
  5
BC
330
2
100
AcDbEntity
  8
OUTLINE
100
AcDbLine
 10
437.7263399333491
 20
757.2901149999998
 30
0.0
 11
436.6063649333491
 21
757.1459289999998
 31
0.0
  0
LINE
  5
BD
330
2
100
AcDbEntity
  8
OUTLINE
100
AcDbLine
 10
473.0877709333491
 20
752.1544539999998
 30
0.0
 11
417.4964909333491
 21
750.5568389999998
 31
0.0
  0
LINE
  5
BE
330
2
100
AcDbEntity
  8
OUTLINE
100
AcDbLine
 10
414.4794049333491
 20
747.4934189999999
 30
0.0
 11
413.8763039333491
 21
745.7203569999998
 31
0.0
  0
LINE
  5
BF
330
2
100
AcDbEntity
  8
OUTLINE
100
AcDbLine
 10
408.9540499333491
 20
746.6255489999999
 30
0.0
 11
414.1387229333491
 21
746.6255489999999
 31
0.0
  0
LINE
  5
C0
330
2
100
AcDbEntity
  8
OUTLINE
100
AcDbLine
 10
408.9540499333491
 20
746.6255489999999
 30
0.0
 11
406.5084119333492
 21
745.125549
 31
0.0
  0
LINE
  5
C1
330
2
100
AcDbEntity
  8
OUTLINE
100
AcDbLine
 10
413.2536509333491
 20
743.309612
 30
0.0
 11
412.8555199333491
 21
741.216167
 31
0.0
  0
LINE
  5
C2
330
2
100
AcDbEntity
  8
OUTLINE
100
AcDbLine
 10
412.4959619333491
 20
738.0510429999998
 30
0.0
 11
412.4347789333491
 21
736.8693059999999
 31
0.0
  0
LINE
  5
C3
330
2
100
AcDbEntity
  8
OUTLINE
100
AcDbLine
 10
413.8763039333491
 20
745.7203569999998
 30
0.0
 11
413.2536509333491
 21
743.309612
 31
0.0
  0
LINE
  5
C4
330
2
100
AcDbEntity
  8
OUTLINE
100
AcDbLine
 10
412.8555199333491
 20
741.216167
 30
0.0
 11
412.6204469333491
 21
739.4594919999998
 31
0.0
  0
LINE
  5
C5
330
2
100
AcDbEntity
  8
OUTLINE
100
AcDbLine
 10
412.6204469333491
 20
739.4594919999998
 30
0.0
 11
412.4959619333491
 21
738.0510429999998
 31
0.0
  0
LINE
  5
C6
330
2
100
AcDbEntity
  8
OUTLINE
100
AcDbLine
 10
418.0449039333491
 20
738.7752279999999
 30
0.0
 11
435.4433249333491
 21
738.7752279999999
 31
0.0
  0
LINE
  5
C7
330
2
100
AcDbEntity
  8
OUTLINE
100
AcDbLine
 10
426.3781069333491
 20
754.8794690000001
 30
0.0
 11
423.6339449333491
 21
753.9432929999999
 31
0.0
  0
LINE
  5
C8
330
2
100
AcDbEntity
  8
OUTLINE
100
AcDbLine
 10
423.6339449333491
 20
753.9432929999999
 30
0.0
 11
420.6153529333491
 21
752.7457559999999
 31
0.0
  0
LINE
  5
C9
330
2
100
AcDbEntity
  8
OUTLINE
100
AcDbLine
 10
420.6153529333491
 20
752.7457559999999
 30
0.0
 11
418.5209739333491
 21
751.7739249999998
 31
0.0
  0
LINE
  5
CA
330
2
100
AcDbEntity
  8
OUTLINE
100
AcDbLine
 10
414.3193809333491
 20
747.074347
 30
0.0
 11
414.3491159333491
 21
747.1179809999998
 31
0.0
  0
ARC
  5
CB
330
2
100
AcDbEntity
  8
OUTLINE
100
AcDbCircle
 10
418.0451109333492
 20
737.7768579999998
 30
0.0
 40
0.99837
100
AcDbArc
 50
90.01188399999669
 51
162.5514889999978
  0
LINE
  5
CC
330
2
100
AcDbEntity
  8
OUTLINE
100
AcDbLine
 10
418.4117859333492
 20
751.708744
 30
0.0
 11
418.5091709333491
 21
751.783032
 31
0.0
  0
LINE
  5
CD
330
2
100
AcDbEntity
  8
OUTLINE
100
AcDbLine
 10
416.2100259333491
 20
746.6659559999999
 30
0.0
 11
415.2001209333491
 21
743.0704069999998
 31
0.0
  0
LINE
  5
CE
330
2
100
AcDbEntity
  8
OUTLINE
100
AcDbLine
 10
415.2001209333491
 20
743.0704069999998
 30
0.0
 11
414.5888679333491
 21
739.381836
 31
0.0
  0
LINE
  5
CF
330
2
100
AcDbEntity
  8
OUTLINE
100
AcDbLine
 10
418.0922119333492
 20
749.3680909999998
 30
0.0
 11
417.6537209333491
 21
749.2887089999998
 31
0.0
  0
LINE
  5
D0
330
2
100
AcDbEntity
  8
OUTLINE
100
AcDbLine
 10
417.2819379333491
 20
749.0617119999998
 30
0.0
 11
416.9922429333491
 21
748.723205
 31
0.0
  0
LINE
  5
D1
330
2
100
AcDbEntity
  8
OUTLINE
100
AcDbLine
 10
417.6537209333491
 20
749.2887089999998
 30
0.0
 11
417.2819379333491
 21
749.0617119999998
 31
0.0
  0
LINE
  5
D2
330
2
100
AcDbEntity
  8
OUTLINE
100
AcDbLine
 10
416.7800399333491
 20
748.3358099999999
 30
0.0
 11
416.2100259333491
 21
746.6659559999999
 31
0.0
  0
LINE
  5
D3
330
2
100
AcDbEntity
  8
OUTLINE
100
AcDbLine
 10
416.9922429333491
 20
748.723205
 30
0.0
 11
416.7800399333491
 21
748.3358099999999
 31
0.0
  0
LINE
  5
D4
330
2
100
AcDbEntity
  8
OUTLINE
100
AcDbLine
 10
418.0922119333492
 20
749.3680909999998
 30
0.0
 11
417.7951049333491
 21
749.961009
 31
0.0
  0
LINE
  5
D5
330
2
100
AcDbEntity
  8
OUTLINE
100
AcDbLine
 10
417.7951049333491
 20
749.961009
 30
0.0
 11
417.2344579333492
 21
751.0796779999998
 31
0.0
  0
LINE
  5
D6
330
2
100
AcDbEntity
  8
OUTLINE
100
AcDbLine
 10
417.4434769333491
 20
750.6561059999999
 30
0.0
 11
417.3967809333491
 21
750.735482
 31
0.0
  0
LINE
  5
D7
330
2
100
AcDbEntity
  8
OUTLINE
100
AcDbLine
 10
417.4978609333491
 20
750.5541059999999
 30
0.0
 11
417.4434769333491
 21
750.6561059999999
 31
0.0
  0
LINE
  5
D8
330
2
100
AcDbEntity
  8
OUTLINE
100
AcDbLine
 10
417.3607909333491
 20
750.7881149999998
 30
0.0
 11
417.3384919333491
 21
750.8101579999999
 31
0.0
  0
LINE
  5
D9
330
2
100
AcDbEntity
  8
OUTLINE
100
AcDbLine
 10
417.3967809333491
 20
750.735482
 30
0.0
 11
417.3607909333491
 21
750.7881149999998
 31
0.0
  0
LINE
  5
DA
330
2
100
AcDbEntity
  8
OUTLINE
100
AcDbLine
 10
418.4683399333492
 20
751.7756999999997
 30
0.0
 11
417.7428069333491
 21
751.3844019999999
 31
0.0
  0
LINE
  5
DB
330
2
100
AcDbEntity
  8
OUTLINE
100
AcDbLine
 10
417.0728469333491
 20
750.930599
 30
0.0
 11
415.8967579333491
 21
749.8457039999998
 31
0.0
  0
LINE
  5
DC
330
2
100
AcDbEntity
  8
OUTLINE
100
AcDbLine
 10
417.7428069333491
 20
751.3844019999999
 30
0.0
 11
417.0728469333491
 21
750.930599
 31
0.0
  0
LINE
  5
DD
330
2
100
AcDbEntity
  8
OUTLINE
100
AcDbLine
 10
414.9624589333491
 20
748.554304
 30
0.0
 11
414.4794049333491
 21
747.4934189999999
 31
0.0
  0
LINE
  5
DE
330
2
100
AcDbEntity
  8
OUTLINE
100
AcDbLine
 10
415.8967579333491
 20
749.8457039999998
 30
0.0
 11
414.9624589333491
 21
748.554304
 31
0.0
  0
LINE
  5
DF
330
2
100
AcDbEntity
  8
OUTLINE
100
AcDbLine
 10
418.5091709333491
 20
751.783032
 30
0.0
 11
418.5147529333491
 21
751.7872889999998
 31
0.0
  0
LINE
  5
E0
330
2
100
AcDbEntity
  8
OUTLINE
100
AcDbLine
 10
418.5388449333491
 20
751.8056669999999
 30
0.0
 11
418.6788829333491
 21
751.8471969999998
 31
0.0
  0
LINE
  5
E1
330
2
100
AcDbEntity
  8
OUTLINE
100
AcDbLine
 10
424.6836029333492
 20
737.5522189999997
 30
0.0
 11
423.1143619333491
 21
737.5522189999997
 31
0.0
  0
LINE
  5
E2
330
2
100
AcDbEntity
  8
OUTLINE
100
AcDbLine
 10
424.6836029333492
 20
737.9601179999998
 30
0.0
 11
424.6836029333492
 21
737.5522189999997
 31
0.0
  0
LINE
  5
E3
330
2
100
AcDbEntity
  8
OUTLINE
100
AcDbLine
 10
425.2299949333491
 20
738.1764699999998
 30
0.0
 11
424.9002989333491
 21
738.1764699999998
 31
0.0
  0
ARC
  5
E4
330
2
100
AcDbEntity
  8
OUTLINE
100
AcDbCircle
 10
424.9001479333491
 20
737.959924
 30
0.0
 40
0.216546
100
AcDbArc
 50
89.96010099999786
 51
179.9487370000023
  0
ARC
  5
E5
330
2
100
AcDbEntity
  8
OUTLINE
100
AcDbCircle
 10
423.113552933349
 20
737.3363320000001
 30
0.0
 40
0.215888
100
AcDbArc
 50
89.78547299999766
 51
179.940603999999
  0
ARC
  5
E6
330
2
100
AcDbEntity
  8
OUTLINE
100
AcDbCircle
 10
425.2298079333491
 20
737.960275
 30
0.0
 40
0.216195
100
AcDbArc
 50
359.958260999997
 51
89.95043100000016
  0
LINE
  5
E7
330
2
100
AcDbEntity
  8
OUTLINE
100
AcDbLine
 10
434.2230719333492
 20
737.5522189999997
 30
0.0
 11
434.2230719333492
 21
737.9601179999998
 31
0.0
  0
LINE
  5
E8
330
2
100
AcDbEntity
  8
OUTLINE
100
AcDbLine
 10
433.7962249333491
 20
737.5522189999997
 30
0.0
 11
434.2230719333492
 21
737.5522189999997
 31
0.0
  0
LINE
  5
E9
330
2
100
AcDbEntity
  8
OUTLINE
100
AcDbLine
 10
434.4387349333492
 20
738.1761249999998
 30
0.0
 11
434.7687749333491
 21
738.1761249999998
 31
0.0
  0
ARC
  5
EA
330
2
100
AcDbEntity
  8
OUTLINE
100
AcDbCircle
 10
434.4387859333491
 20
737.960411
 30
0.0
 40
0.215714
100
AcDbArc
 50
90.01363199999849
 51
180.0778220000019
  0
ARC
  5
EB
330
2
100
AcDbEntity
  8
OUTLINE
100
AcDbCircle
 10
434.7689329333491
 20
737.9599309999998
 30
0.0
 40
0.216195
100
AcDbArc
 50
0.0495490000033657
 51
90.04175899999728
  0
ARC
  5
EC
330
2
100
AcDbEntity
  8
OUTLINE
100
AcDbCircle
 10
433.7962249333491
 20
737.335865
 30
0.0
 40
0.216353
100
AcDbArc
 50
90.0
 51
179.8171759999972
  0
ARC
  5
ED
330
2
100
AcDbEntity
  8
OUTLINE
100
AcDbCircle
 10
435.4436909333491
 20
738.3253199999998
 30
0.0
 40
0.449908
100
AcDbArc
 50
359.9972310000016
 51
90.0466240000008
  0
LINE
  5
EE
330
2
100
AcDbEntity
  8
OUTLINE
100
AcDbLine
 10
432.8395849333491
 20
756.5196179999999
 30
0.0
 11
430.9677489333491
 21
756.12345
 31
0.0
  0
LINE
  5
EF
330
2
100
AcDbEntity
  8
OUTLINE
100
AcDbLine
 10
428.8279169333491
 20
755.5931969999997
 30
0.0
 11
426.3781069333491
 21
754.8794690000001
 31
0.0
  0
LINE
  5
F0
330
2
100
AcDbEntity
  8
OUTLINE
100
AcDbLine
 10
430.9677489333491
 20
756.12345
 30
0.0
 11
428.8279169333491
 21
755.5931969999997
 31
0.0
  0
LINE
  5
F1
330
2
100
AcDbEntity
  8
OUTLINE
100
AcDbLine
 10
435.4178219333491
 20
756.9720159999998
 30
0.0
 11
434.1617779333491
 21
756.764682
 31
0.0
  0
LINE
  5
F2
330
2
100
AcDbEntity
  8
OUTLINE
100
AcDbLine
 10
434.1617779333491
 20
756.764682
 30
0.0
 11
432.8395849333491
 21
756.5196179999999
 31
0.0
  0
LINE
  5
F3
330
2
100
AcDbEntity
  8
OUTLINE
100
AcDbLine
 10
463.0235219333491
 20
754.5814609999998
 30
0.0
 11
458.2324129333492
 21
755.976169
 31
0.0
  0
LINE
  5
F4
330
2
100
AcDbEntity
  8
OUTLINE
100
AcDbLine
 10
453.3245859333491
 20
756.9667299999998
 30
0.0
 11
448.3456869333491
 21
757.53634
 31
0.0
  0
LINE
  5
F5
330
2
100
AcDbEntity
  8
OUTLINE
100
AcDbLine
 10
444.2392619333491
 20
757.6827469999998
 30
0.0
 11
439.8418739333491
 21
757.51328
 31
0.0
  0
LINE
  5
F6
330
2
100
AcDbEntity
  8
OUTLINE
100
AcDbLine
 10
440.4071529333491
 20
757.553607
 30
0.0
 11
440.3719499333491
 21
757.5513519999998
 31
0.0
  0
LINE
  5
F7
330
2
100
AcDbEntity
  8
OUTLINE
100
AcDbLine
 10
440.3719499333491
 20
757.5513519999998
 30
0.0
 11
440.0093489333491
 21
757.5197339999999
 31
0.0
  0
LINE
  5
F8
330
2
100
AcDbEntity
  8
OUTLINE
100
AcDbLine
 10
439.8418739333491
 20
757.51328
 30
0.0
 11
437.6105189333491
 21
757.2554199999999
 31
0.0
  0
LINE
  5
F9
330
2
100
AcDbEntity
  8
OUTLINE
100
AcDbLine
 10
439.5545669333492
 20
757.480078
 30
0.0
 11
439.1115649333491
 21
757.44145
 31
0.0
  0
LINE
  5
FA
330
2
100
AcDbEntity
  8
OUTLINE
100
AcDbLine
 10
439.1115649333491
 20
757.44145
 30
0.0
 11
437.7263399333491
 21
757.2901149999998
 31
0.0
  0
LINE
  5
FB
330
2
100
AcDbEntity
  8
OUTLINE
100
AcDbLine
 10
448.3456869333491
 20
757.53634
 30
0.0
 11
444.2392619333491
 21
757.6827469999998
 31
0.0
  0
LINE
  5
FC
330
2
100
AcDbEntity
  8
OUTLINE
100
AcDbLine
 10
458.2324129333492
 20
755.976169
 30
0.0
 11
453.3245859333491
 21
756.9667299999998
 31
0.0
  0
LINE
  5
FD
330
2
100
AcDbEntity
  8
OUTLINE
100
AcDbLine
 10
471.7827159333491
 20
752.358302
 30
0.0
 11
472.5310589333491
 21
752.2414109999998
 31
0.0
  0
LINE
  5
FE
330
2
100
AcDbEntity
  8
OUTLINE
100
AcDbLine
 10
474.7674059333491
 20
752.621975
 30
0.0
 11
471.5687709333491
 21
752.7627139999998
 31
0.0
  0
LINE
  5
FF
330
2
100
AcDbEntity
  8
OUTLINE
100
AcDbLine
 10
468.2937929333491
 20
753.166648
 30
0.0
 11
466.7738479333491
 21
753.4808829999998
 31
0.0
  0
LINE
  5
100
330
2
100
AcDbEntity
  8
OUTLINE
100
AcDbLine
 10
464.0286379333491
 20
754.2532229999998
 30
0.0
 11
467.8679509333491
 21
753.173066
 31
0.0
  0
LINE
  5
101
330
2
100
AcDbEntity
  8
OUTLINE
100
AcDbLine
 10
468.1247599333491
 20
753.1899769999998
 30
0.0
 11
467.6352329333491
 21
753.2745129999998
 31
0.0
  0
LINE
  5
102
330
2
100
AcDbEntity
  8
OUTLINE
100
AcDbLine
 10
471.7827159333491
 20
752.358302
 30
0.0
 11
471.7951339333492
 21
752.3315049999999
 31
0.0
  0
LINE
  5
103
330
2
100
AcDbEntity
  8
OUTLINE
100
AcDbLine
 10
471.5687709333491
 20
752.7627139999998
 30
0.0
 11
468.2937929333491
 21
753.166648
 31
0.0
  0
LINE
  5
104
330
2
100
AcDbEntity
  8
OUTLINE
100
AcDbLine
 10
467.8679509333491
 20
753.173066
 30
0.0
 11
471.7827189333491
 21
752.3583169999998
 31
0.0
  0
LINE
  5
105
330
2
100
AcDbEntity
  8
OUTLINE
100
AcDbLine
 10
463.2867049333491
 20
754.49359
 30
0.0
 11
463.2673599333491
 21
754.4823389999997
 31
0.0
  0
LINE
  5
106
330
2
100
AcDbEntity
  8
OUTLINE
100
AcDbLine
 10
463.0235219333491
 20
754.5814609999998
 30
0.0
 11
463.0037549333492
 21
754.570367
 31
0.0
  0
LINE
  5
107
330
2
100
AcDbEntity
  8
OUTLINE
100
AcDbLine
 10
464.0286379333491
 20
754.2532229999998
 30
0.0
 11
464.0093709333491
 21
754.2414059999998
 31
0.0
  0
LINE
  5
108
330
2
100
AcDbEntity
  8
OUTLINE
100
AcDbLine
 10
464.0093709333491
 20
754.2414059999998
 30
0.0
 11
464.0085129333491
 21
754.23999
 31
0.0
  0
LINE
  5
109
330
2
100
AcDbEntity
  8
OUTLINE
100
AcDbLine
 10
463.0249179333492
 20
754.5809869999998
 30
0.0
 11
463.0235219333491
 21
754.5814609999998
 31
0.0
  0
LINE
  5
10A
330
2
100
AcDbEntity
  8
OUTLINE
100
AcDbLine
 10
463.0249179333492
 20
754.5809869999998
 30
0.0
 11
463.2867049333491
 21
754.49359
 31
0.0
  0
LINE
  5
10B
330
2
100
AcDbEntity
  8
OUTLINE
100
AcDbLine
 10
463.2867049333491
 20
754.49359
 30
0.0
 11
464.0286379333491
 21
754.2532229999998
 31
0.0
  0
LINE
  5
10C
330
2
100
AcDbEntity
  8
OUTLINE
100
AcDbLine
 10
467.6352329333491
 20
753.2745129999998
 30
0.0
 11
467.2844959333491
 21
753.3372159999998
 31
0.0
  0
LINE
  5
10D
330
2
100
AcDbEntity
  8
OUTLINE
100
AcDbLine
 10
477.6963919333491
 20
751.8359839999998
 30
0.0
 11
478.3532609333491
 21
751.8294049999998
 31
0.0
  0
LINE
  5
10E
330
2
100
AcDbEntity
  8
OUTLINE
100
AcDbLine
 10
475.7321519333491
 20
751.9136899999998
 30
0.0
 11
476.3861899333491
 21
751.8778689999997
 31
0.0
  0
LINE
  5
10F
330
2
100
AcDbEntity
  8
OUTLINE
100
AcDbLine
 10
473.2703009333492
 20
752.1422499999999
 30
0.0
 11
474.0052179333491
 21
752.0580999999999
 31
0.0
  0
LINE
  5
110
330
2
100
AcDbEntity
  8
OUTLINE
100
AcDbLine
 10
474.0052179333491
 20
752.0580999999999
 30
0.0
 11
475.7321519333491
 21
751.9136899999998
 31
0.0
  0
LINE
  5
111
330
2
100
AcDbEntity
  8
OUTLINE
100
AcDbLine
 10
472.5310589333491
 20
752.2414109999998
 30
0.0
 11
473.2703009333492
 21
752.1422499999999
 31
0.0
  0
LINE
  5
112
330
2
100
AcDbEntity
  8
OUTLINE
100
AcDbLine
 10
476.3861899333491
 20
751.8778689999997
 30
0.0
 11
477.0408229333491
 21
751.8520459999998
 31
0.0
  0
LINE
  5
113
330
2
100
AcDbEntity
  8
OUTLINE
100
AcDbLine
 10
477.0408229333491
 20
751.8520459999998
 30
0.0
 11
477.6963919333491
 21
751.8359839999998
 31
0.0
  0
LINE
  5
114
330
2
100
AcDbEntity
  8
OUTLINE
100
AcDbLine
 10
474.7984479333491
 20
752.6082329999998
 30
0.0
 11
474.7681099333491
 21
752.6084129999998
 31
0.0
  0
LINE
  5
115
330
2
100
AcDbEntity
  8
OUTLINE
100
AcDbLine
 10
479.0118129333492
 20
751.831953
 30
0.0
 11
479.6749779333492
 21
751.8430429999998
 31
0.0
  0
LINE
  5
116
330
2
100
AcDbEntity
  8
OUTLINE
100
AcDbLine
 10
478.3532609333491
 20
751.8294049999998
 30
0.0
 11
479.0118129333492
 21
751.831953
 31
0.0
  0
LINE
  5
117
330
2
100
AcDbEntity
  8
OUTLINE
100
AcDbLine
 10
579.1702079333492
 20
753.8387729999998
 30
0.0
 11
699.3347869333493
 21
761.5718769999999
 31
0.0
  0
LINE
  5
118
330
2
100
AcDbEntity
  8
OUTLINE
100
AcDbLine
 10
588.3840859333491
 20
747.776845
 30
0.0
 11
677.7869259333492
 21
751.229029
 31
0.0
  0
ARC
  5
119
330
2
100
AcDbEntity
  8
OUTLINE
100
AcDbCircle
 10
678.3894359333491
 20
735.6255489999998
 30
0.0
 40
15.61510799999999
100
AcDbArc
 50
267.7886910000032
 51
92.21130899999677
  0
ARC
  5
11A
330
2
100
AcDbEntity
  8
OUTLINE
100
AcDbCircle
 10
666.0566709333492
 20
977.8685949999999
 30
0.0
 40
300.0
100
AcDbArc
 50
269.4209389999989
 51
277.257640999998
  0
ARC
  5
11B
330
2
100
AcDbEntity
  8
OUTLINE
100
AcDbCircle
 10
700.9545439333493
 20
1063.911134999999
 30
0.0
 40
400.0
100
AcDbArc
 50
264.5617530000027
 51
270.4299379999993
  0
LINE
  5
11C
330
2
100
AcDbEntity
  8
OUTLINE
100
AcDbLine
 10
588.3840859333491
 20
723.474253
 30
0.0
 11
677.7869259333492
 21
720.02207
 31
0.0
  0
LINE
  5
11D
330
2
100
AcDbEntity
  8
OUTLINE
100
AcDbLine
 10
579.1702079333492
 20
717.412326
 30
0.0
 11
699.3347869333493
 21
709.679222
 31
0.0
  0
ARC
  5
11E
330
2
100
AcDbEntity
  8
OUTLINE
100
AcDbCircle
 10
654.7996489333492
 20
735.6255489999998
 30
0.0
 40
14.704895
100
AcDbArc
 50
267.7886910000032
 51
92.21130899999677
  0
LINE
  5
11F
330
2
100
AcDbEntity
  8
OUTLINE
100
AcDbLine
 10
563.4034009333491
 20
735.6255489999998
 30
0.0
 11
562.4841529333491
 21
747.0529349999998
 31
0.0
  0
ARC
  5
120
330
2
100
AcDbEntity
  8
OUTLINE
100
AcDbCircle
 10
622.5045439333491
 20
735.6255489999998
 30
0.0
 40
50.0
100
AcDbArc
 50
162.911014999999
 51
197.0889850000008
  0
ARC
  5
121
330
2
100
AcDbEntity
  8
OUTLINE
100
AcDbCircle
 10
633.0045439333491
 20
735.6255489999998
 30
0.0
 40
50.0
100
AcDbArc
 50
170.8511169999985
 51
189.1488830000015
  0
LINE
  5
122
330
2
100
AcDbEntity
  8
OUTLINE
100
AcDbLine
 10
575.8569289333491
 20
717.6255489999999
 30
0.0
 11
579.1702079333492
 21
717.412326
 31
0.0
  0
LINE
  5
123
330
2
100
AcDbEntity
  8
OUTLINE
100
AcDbLine
 10
561.0716549333491
 20
717.3871859999998
 30
0.0
 11
592.8244629333492
 21
716.5336159999998
 31
0.0
  0
ARC
  5
124
330
2
100
AcDbEntity
  8
OUTLINE
100
AcDbCircle
 10
579.4913149333492
 20
722.402004
 30
0.0
 40
5.0
100
AcDbArc
 50
197.0889850000008
 51
266.3178490000018
  0
LINE
  5
125
330
2
100
AcDbEntity
  8
OUTLINE
100
AcDbLine
 10
543.429281933349
 20
717.812634
 30
0.0
 11
525.869574933349
 21
718.269538
 31
0.0
  0
LINE
  5
126
330
2
100
AcDbEntity
  8
OUTLINE
100
AcDbLine
 10
508.1589269333491
 20
718.706459
 30
0.0
 11
506.227090933349
 21
718.7575329999998
 31
0.0
  0
LINE
  5
127
330
2
100
AcDbEntity
  8
OUTLINE
100
AcDbLine
 10
487.8257349333491
 20
719.2142119999998
 30
0.0
 11
495.8492079333491
 21
719.0183419999998
 31
0.0
  0
LINE
  5
128
330
2
100
AcDbEntity
  8
OUTLINE
100
AcDbLine
 10
495.8492079333491
 20
719.0183419999998
 30
0.0
 11
503.7201339333491
 21
718.822032
 31
0.0
  0
LINE
  5
129
330
2
100
AcDbEntity
  8
OUTLINE
100
AcDbLine
 10
503.7201339333491
 20
718.822032
 30
0.0
 11
505.8392149333491
 21
718.767781
 31
0.0
  0
LINE
  5
12A
330
2
100
AcDbEntity
  8
OUTLINE
100
AcDbLine
 10
506.227090933349
 20
718.7575329999998
 30
0.0
 11
505.8392149333491
 21
718.767781
 31
0.0
  0
LINE
  5
12B
330
2
100
AcDbEntity
  8
OUTLINE
100
AcDbLine
 10
525.869574933349
 20
718.269538
 30
0.0
 11
508.1589269333491
 21
718.706459
 31
0.0
  0
LINE
  5
12C
330
2
100
AcDbEntity
  8
OUTLINE
100
AcDbLine
 10
560.8312089333491
 20
717.365911
 30
0.0
 11
543.429281933349
 21
717.812634
 31
0.0
  0
LINE
  5
12D
330
2
100
AcDbEntity
  8
OUTLINE
100
AcDbLine
 10
562.4841529333491
 20
724.198163
 30
0.0
 11
561.7300789333492
 21
718.678131
 31
0.0
  0
LINE
  5
12E
330
2
100
AcDbEntity
  8
OUTLINE
100
AcDbLine
 10
561.5863019333492
 20
718.1373219999999
 30
0.0
 11
561.3963819333491
 21
717.7390230000001
 31
0.0
  0
LINE
  5
12F
330
2
100
AcDbEntity
  8
OUTLINE
100
AcDbLine
 10
561.7300649333491
 20
718.678131
 30
0.0
 11
561.5863019333492
 21
718.1373219999999
 31
0.0
  0
LINE
  5
130
330
2
100
AcDbEntity
  8
OUTLINE
100
AcDbLine
 10
561.1603029333491
 20
717.4832349999998
 30
0.0
 11
560.8780659333493
 21
717.369957
 31
0.0
  0
LINE
  5
131
330
2
100
AcDbEntity
  8
OUTLINE
100
AcDbLine
 10
561.3963819333491
 20
717.7390230000001
 30
0.0
 11
561.1603029333491
 21
717.4832349999998
 31
0.0
  0
LINE
  5
132
330
2
100
AcDbEntity
  8
OUTLINE
100
AcDbLine
 10
560.8778639333491
 20
717.364654
 30
0.0
 11
560.8189429333491
 21
717.364651
 31
0.0
  0
LINE
  5
133
330
2
100
AcDbEntity
  8
OUTLINE
100
AcDbLine
 10
563.4034009333491
 20
735.6255489999998
 30
0.0
 11
562.4841529333491
 21
724.198163
 31
0.0
  0
ARC
  5
134
330
2
100
AcDbEntity
  8
OUTLINE
100
AcDbCircle
 10
622.5045439333491
 20
735.6255489999998
 30
0.0
 40
50.0
100
AcDbArc
 50
197.0889850000008
 51
201.1001959999999
  0
ARC
  5
135
330
2
100
AcDbEntity
  8
OUTLINE
100
AcDbCircle
 10
588.5770109333492
 20
728.4705299999999
 30
0.0
 40
5.0
100
AcDbArc
 50
189.1488830000015
 51
267.7886910000032
  0
LINE
  5
136
330
2
100
AcDbEntity
  8
OUTLINE
100
AcDbLine
 10
584.4658989333492
 20
723.6255489999998
 30
0.0
 11
588.3840859333491
 21
723.474253
 31
0.0
  0
ARC
  5
137
330
2
100
AcDbEntity
  8
OUTLINE
100
AcDbCircle
 10
633.0045439333491
 20
735.6255489999998
 30
0.0
 40
50.0
100
AcDbArc
 50
189.1488830000015
 51
193.8865400000002
  0
LINE
  5
138
330
2
100
AcDbEntity
  8
OUTLINE
100
AcDbLine
 10
661.4376019333492
 20
667.5686069999998
 30
0.0
 11
661.0072959333493
 21
675.7793469999998
 31
0.0
  0
ARC
  5
139
330
2
100
AcDbEntity
  8
OUTLINE
100
AcDbCircle
 10
663.4348609333492
 20
667.6732789999999
 30
0.0
 40
2.0
100
AcDbArc
 50
182.9999999999989
 51
270.4107519999976
  0
ARC
  5
13A
330
2
100
AcDbEntity
  8
OUTLINE
100
AcDbCircle
 10
663.0045549333492
 20
675.8840189999999
 30
0.0
 40
2.0
100
AcDbArc
 50
89.42093899999894
 51
182.9999999999989
  0
LINE
  5
13B
330
2
100
AcDbEntity
  8
OUTLINE
100
AcDbLine
 10
561.0716549333491
 20
753.8639129999998
 30
0.0
 11
592.8244629333492
 21
754.717483
 31
0.0
  0
ARC
  5
13C
330
2
100
AcDbEntity
  8
OUTLINE
100
AcDbCircle
 10
579.4913149333492
 20
748.849095
 30
0.0
 40
5.0
100
AcDbArc
 50
93.68215099999813
 51
162.911014999999
  0
LINE
  5
13D
330
2
100
AcDbEntity
  8
OUTLINE
100
AcDbLine
 10
575.8569289333491
 20
753.625549
 30
0.0
 11
579.1702079333492
 21
753.8387729999998
 31
0.0
  0
LINE
  5
13E
330
2
100
AcDbEntity
  8
OUTLINE
100
AcDbLine
 10
543.429281933349
 20
753.4384639999998
 30
0.0
 11
525.869574933349
 21
752.9815609999998
 31
0.0
  0
LINE
  5
13F
330
2
100
AcDbEntity
  8
OUTLINE
100
AcDbLine
 10
508.1589269333491
 20
752.5446399999998
 30
0.0
 11
506.227090933349
 21
752.4935649999998
 31
0.0
  0
LINE
  5
140
330
2
100
AcDbEntity
  8
OUTLINE
100
AcDbLine
 10
487.8257349333491
 20
752.0368869999998
 30
0.0
 11
495.8492079333491
 21
752.2327559999999
 31
0.0
  0
LINE
  5
141
330
2
100
AcDbEntity
  8
OUTLINE
100
AcDbLine
 10
495.8492079333491
 20
752.2327559999999
 30
0.0
 11
503.7201339333491
 21
752.429067
 31
0.0
  0
LINE
  5
142
330
2
100
AcDbEntity
  8
OUTLINE
100
AcDbLine
 10
506.227090933349
 20
752.4935649999998
 30
0.0
 11
505.8392149333491
 21
752.4833179999998
 31
0.0
  0
LINE
  5
143
330
2
100
AcDbEntity
  8
OUTLINE
100
AcDbLine
 10
503.7201339333491
 20
752.429067
 30
0.0
 11
505.8392149333491
 21
752.4833179999998
 31
0.0
  0
LINE
  5
144
330
2
100
AcDbEntity
  8
OUTLINE
100
AcDbLine
 10
525.869574933349
 20
752.9815609999998
 30
0.0
 11
508.1589269333491
 21
752.5446399999998
 31
0.0
  0
LINE
  5
145
330
2
100
AcDbEntity
  8
OUTLINE
100
AcDbLine
 10
560.8312089333491
 20
753.885188
 30
0.0
 11
543.429281933349
 21
753.4384639999998
 31
0.0
  0
LINE
  5
146
330
2
100
AcDbEntity
  8
OUTLINE
100
AcDbLine
 10
561.5863019333492
 20
753.1137769999999
 30
0.0
 11
561.3963819333491
 21
753.5120759999998
 31
0.0
  0
LINE
  5
147
330
2
100
AcDbEntity
  8
OUTLINE
100
AcDbLine
 10
562.4841529333491
 20
747.0529349999998
 30
0.0
 11
561.7300789333492
 21
752.5729679999998
 31
0.0
  0
LINE
  5
148
330
2
100
AcDbEntity
  8
OUTLINE
100
AcDbLine
 10
561.7300649333491
 20
752.5729679999998
 30
0.0
 11
561.5863019333492
 21
753.1137769999999
 31
0.0
  0
LINE
  5
149
330
2
100
AcDbEntity
  8
OUTLINE
100
AcDbLine
 10
561.1603029333491
 20
753.7678639999998
 30
0.0
 11
560.8780659333493
 21
753.881142
 31
0.0
  0
LINE
  5
14A
330
2
100
AcDbEntity
  8
OUTLINE
100
AcDbLine
 10
561.3963819333491
 20
753.5120759999998
 30
0.0
 11
561.1603029333491
 21
753.7678639999998
 31
0.0
  0
LINE
  5
14B
330
2
100
AcDbEntity
  8
OUTLINE
100
AcDbLine
 10
560.8778639333491
 20
753.886445
 30
0.0
 11
560.8189429333491
 21
753.8864479999999
 31
0.0
  0
ARC
  5
14C
330
2
100
AcDbEntity
  8
OUTLINE
100
AcDbCircle
 10
622.5045439333491
 20
735.6255489999998
 30
0.0
 40
50.0
100
AcDbArc
 50
158.8998039999999
 51
162.911014999999
  0
LINE
  5
14D
330
2
100
AcDbEntity
  8
OUTLINE
100
AcDbLine
 10
584.4658989333492
 20
747.6255489999998
 30
0.0
 11
588.3840859333491
 21
747.776845
 31
0.0
  0
ARC
  5
14E
330
2
100
AcDbEntity
  8
OUTLINE
100
AcDbCircle
 10
588.5770109333492
 20
742.780569
 30
0.0
 40
5.0
100
AcDbArc
 50
92.21130899999677
 51
170.8511169999985
  0
ARC
  5
14F
330
2
100
AcDbEntity
  8
OUTLINE
100
AcDbCircle
 10
633.0045439333491
 20
735.6255489999998
 30
0.0
 40
50.0
100
AcDbArc
 50
166.1134599999996
 51
170.8511169999985
  0
ARC
  5
150
330
2
100
AcDbEntity
  8
OUTLINE
100
AcDbCircle
 10
701.0045439333493
 20
720.625549
 30
0.0
 40
60.0
100
AcDbArc
 50
255.2627959999965
 51
284.7372040000033
  0
LINE
  5
151
330
2
100
AcDbEntity
  8
OUTLINE
100
AcDbLine
 10
718.5045439333491
 20
688.4111379999998
 30
0.0
 11
683.5045439333491
 21
688.4111379999998
 31
0.0
  0
LINE
  5
152
330
2
100
AcDbEntity
  8
OUTLINE
100
AcDbLine
 10
717.5045439333493
 20
687.9111379999998
 30
0.0
 11
684.5045439333492
 21
687.9111379999998
 31
0.0
  0
LINE
  5
153
330
2
100
AcDbEntity
  8
OUTLINE
100
AcDbLine
 10
718.5045439333491
 20
691.9111379999998
 30
0.0
 11
683.5045439333491
 21
691.9111379999998
 31
0.0
  0
TEXT
  5
154
330
2
100
AcDbEntity
  8
OUTLINE
100
AcDbText
 10
685.7545239333492
 20
674.630635
 30
0.0
 40
6.0
  1
水
 50
270.0000010000014
 41
0.972222
100
AcDbText
  0
TEXT
  5
155
330
2
100
AcDbEntity
  8
OUTLINE
100
AcDbText
 10
692.7545239333491
 20
674.630635
 30
0.0
 40
6.0
  1
浄
 50
270.0000010000014
 41
0.972222
100
AcDbText
  0
LINE
  5
156
330
2
100
AcDbEntity
  8
OUTLINE
100
AcDbLine
 10
683.2545439333491
 20
671.9139769999998
 30
0.0
 11
678.2545439333492
 21
667.4139769999998
 31
0.0
  0
LINE
  5
157
330
2
100
AcDbEntity
  8
OUTLINE
100
AcDbLine
 10
671.2545439333491
 20
669.4139769999998
 30
0.0
 11
671.2545439333491
 21
674.4139769999998
 31
0.0
  0
LINE
  5
158
330
2
100
AcDbEntity
  8
OUTLINE
100
AcDbLine
 10
678.2545439333492
 20
669.4139769999998
 30
0.0
 11
671.2545439333491
 21
669.4139769999998
 31
0.0
  0
LINE
  5
159
330
2
100
AcDbEntity
  8
OUTLINE
100
AcDbLine
 10
678.2545439333492
 20
667.4139769999998
 30
0.0
 11
678.2545439333492
 21
669.4139769999998
 31
0.0
  0
ARC
  5
15A
330
2
100
AcDbEntity
  8
OUTLINE
100
AcDbCircle
 10
686.5045439333491
 20
665.5006909999998
 30
0.0
 40
3.0
100
AcDbArc
 50
203.9952619999995
 51
255.2627959999965
  0
LINE
  5
15B
330
2
100
AcDbEntity
  8
OUTLINE
100
AcDbLine
 10
677.7869259333492
 20
720.02207
 30
0.0
 11
701.0045439333493
 21
719.1255489999998
 31
0.0
  0
LINE
  5
15C
330
2
100
AcDbEntity
  8
OUTLINE
100
AcDbLine
 10
683.5045439333491
 20
710.6979659999998
 30
0.0
 11
683.5045439333491
 21
688.4111379999998
 31
0.0
  0
LINE
  5
15D
330
2
100
AcDbEntity
  8
OUTLINE
100
AcDbLine
 10
683.2545439333491
 20
671.9139769999998
 30
0.0
 11
678.2545439333492
 21
676.4139769999998
 31
0.0
  0
LINE
  5
15E
330
2
100
AcDbEntity
  8
OUTLINE
100
AcDbLine
 10
671.2545439333491
 20
674.4139769999998
 30
0.0
 11
678.2545439333492
 21
674.4139769999998
 31
0.0
  0
LINE
  5
15F
330
2
100
AcDbEntity
  8
OUTLINE
100
AcDbLine
 10
678.2545439333492
 20
676.4139769999998
 30
0.0
 11
678.2545439333492
 21
674.4139769999998
 31
0.0
  0
ARC
  5
160
330
2
100
AcDbEntity
  8
OUTLINE
100
AcDbCircle
 10
684.5045439333492
 20
686.9111379999998
 30
0.0
 40
1.0
100
AcDbArc
 50
90.0
 51
180.0
  0
LINE
  5
161
330
2
100
AcDbEntity
  8
OUTLINE
100
AcDbLine
 10
683.5045439333491
 20
686.9111379999998
 30
0.0
 11
683.5045439333491
 21
678.376406
 31
0.0
  0
LINE
  5
162
330
2
100
AcDbEntity
  8
OUTLINE
100
AcDbLine
 10
686.0045129333492
 20
688.4111379999998
 30
0.0
 11
686.0045129333492
 21
687.9111379999998
 31
0.0
  0
LINE
  5
164
330
2
100
AcDbEntity
  8
OUTLINE
100
AcDbLine
 10
718.5045439333491
 20
665.5006909999998
 30
0.0
 11
718.5045439333491
 21
686.9111379999998
 31
0.0
  0
ARC
  5
165
330
2
100
AcDbEntity
  8
OUTLINE
100
AcDbCircle
 10
715.5045439333491
 20
665.5006909999998
 30
0.0
 40
3.0
100
AcDbArc
 50
284.7372040000033
 51
0.0
  0
LINE
  5
166
330
2
100
AcDbEntity
  8
OUTLINE
100
AcDbLine
 10
718.5045439333491
 20
713.136663
 30
0.0
 11
718.5045439333491
 21
688.4111379999998
 31
0.0
  0
ARC
  5
167
330
2
100
AcDbEntity
  8
OUTLINE
100
AcDbCircle
 10
717.5045439333493
 20
686.9111379999998
 30
0.0
 40
1.0
100
AcDbArc
 50
0.0
 51
90.0
  0
LINE
  5
168
330
2
100
AcDbEntity
  8
OUTLINE
100
AcDbLine
 10
716.0045359333492
 20
688.4111379999998
 30
0.0
 11
716.0045359333492
 21
687.9111379999998
 31
0.0
  0
ARC
  5
169
330
2
100
AcDbEntity
  8
OUTLINE
100
AcDbCircle
 10
726.5045439333492
 20
713.136663
 30
0.0
 40
8.0
100
AcDbArc
 50
138.5903779999992
 51
180.0
  0
LINE
  5
16A
330
2
100
AcDbEntity
  8
OUTLINE
100
AcDbLine
 10
677.7869259333492
 20
751.229029
 30
0.0
 11
701.0045439333493
 21
752.1255489999998
 31
0.0
  0
ARC
  5
16B
330
2
100
AcDbEntity
  8
OUTLINE
100
AcDbCircle
 10
701.0045439333493
 20
735.6255489999998
 30
0.0
 40
26.0
100
AcDbArc
 50
266.4149020000011
 51
93.58509799999884
  0
POINT
  5
178
330
2
100
AcDbEntity
  8
0
  6
CONTINUOUS
100
AcDbPoint
 10
701.0045439333493
 20
735.6255489999998
 30
0.0
  0
ENDSEC
  0
SECTION
  2
OBJECTS
  0
DICTIONARY
  5
A
330
0
100
AcDbDictionary
  3
ACAD_COLOR
350
33
  3
ACAD_GROUP
350
2F
  3
ACAD_LAYOUT
350
F
  3
ACAD_MATERIAL
350
32
  3
ACAD_MLINESTYLE
350
30
  3
ACAD_PLOTSETTINGS
350
31
  3
ACAD_PLOTSTYLENAME
350
9
  3
ACAD_TABLESTYLE
350
34
  3
ACDBVARIABLEDICTIONARY
350
16F
  3
ACDBHEADERROUNDTRIPXREC
350
190
  0
DICTIONARY
  5
18
330
17
100
AcDbDictionary
280
     1
  3
ACAD_LAYERFILTERS
360
19
  3
ACLYDICTIONARY
360
1A
  0
DICTIONARY
  5
3
330
2
100
AcDbDictionary
280
     1
  3
ACAD_LAYOUTSELFREF
360
1B1
  3
ACAD_SORTENTS
360
16C
  0
DICTIONARY
  5
12
330
11
100
AcDbDictionary
280
     1
  3
ACAD_LAYOUTSELFREF
360
1B2
  0
DICTIONARY
  5
33
102
{ACAD_REACTORS
330
A
102
}
330
A
100
AcDbDictionary
  0
DICTIONARY
  5
2F
102
{ACAD_REACTORS
330
A
102
}
330
A
100
AcDbDictionary
  0
DICTIONARY
  5
F
102
{ACAD_REACTORS
330
A
102
}
330
A
100
AcDbDictionary
  0
DICTIONARY
  5
32
102
{ACAD_REACTORS
330
A
102
}
330
A
100
AcDbDictionary
  0
DICTIONARY
  5
30
102
{ACAD_REACTORS
330
A
102
}
330
A
100
AcDbDictionary
  3
STANDARD
350
36
  0
DICTIONARY
  5
31
102
{ACAD_REACTORS
330
A
102
}
330
A
100
AcDbDictionary
  0
ACDBDICTIONARYWDFLT
  5
9
102
{ACAD_REACTORS
330
A
102
}
330
A
100
AcDbDictionary
281
     1
  3
Normal
350
8
100
AcDbDictionaryWithDefault
340
8
1001
ACAD
1000
TREAT_AS_HARD
1070
     0
  0
DICTIONARY
  5
34
102
{ACAD_REACTORS
330
A
102
}
330
A
100
AcDbDictionary
  3
STANDARD
350
37
  0
DICTIONARY
  5
16F
102
{ACAD_REACTORS
330
A
102
}
330
A
100
AcDbDictionary
  3
CTABLESTYLE
350
170
  3
DIMASSOC
350
181
  3
HIDETEXT
350
180
  3
PROJECTNAME
350
182
  0
DICTIONARY
  5
190
102
{ACAD_REACTORS
330
A
102
}
330
A
100
AcDbDictionary
  3
TSTACKALIGN
350
191
  3
TSTACKSIZE
350
192
  3
HYPERLINKBASE
350
193
  3
STYLESHEET
350
194
  3
LAYOUTDICT
350
195
  3
PLOTSETDICT
350
196
  3
PLOTSTYLNAMDICT
350
197
  3
LWETCUNION
350
198
  3
INSUNITS
350
199
  3
CEPSNTYPE
350
19A
  3
FINGERPRINTGUID
350
19B
  3
VERSIONGUID
350
19C
  3
PSVPSCALE
350
19D
  3
DIMSTYLEDATA
350
19E
  3
PUCSORTHOREF
350
19F
  3
PUCSORTHOVIEW
350
1A0
  3
PUCSBASE
350
1A1
  3
PUCSORGTOP
350
1A2
  3
PUCSORGBOTTOM
350
1A3
  3
PUCSORGLEFT
350
1A4
  3
PUCSORGRIGHT
350
1A5
  3
PUCSORGFRONT
350
1A6
  3
PUCSORGBACK
350
1A7
  3
UCSORTHOREF
350
1A8
  3
UCSORTHOVIEW
350
1A9
  3
UCSBASE
350
1AA
  3
UCSORGTOP
350
1AB
  3
UCSORGBOTTOM
350
1AC
  3
UCSORGLEFT
350
1AD
  3
UCSORGRIGHT
350
1AE
  3
UCSORGFRONT
350
1AF
  3
UCSORGBACK
350
1B0
  0
DICTIONARY
  5
19
102
{ACAD_REACTORS
330
18
102
}
330
18
100
AcDbDictionary
  0
DICTIONARY
  5
1A
102
{ACAD_REACTORS
330
18
102
}
330
18
100
AcDbDictionary
1001
ACAD
1000
<All
  0
XRECORD
  5
1B1
102
{ACAD_REACTORS
330
3
102
}
330
3
100
AcDbXrecord
340
2
  0
SORTENTSTABLE
  5
16C
102
{ACAD_REACTORS
330
3
102
}
330
3
100
AcDbSortentsTable
330
2
  0
XRECORD
  5
1B2
102
{ACAD_REACTORS
330
12
102
}
330
12
100
AcDbXrecord
340
11
  0
MLINESTYLE
  5
36
102
{ACAD_REACTORS
330
30
102
}
330
30
100
AcDbMlineStyle
  2
STANDARD
 70
     0
  3

 62
   256
 51
90.0
 52
90.0
 71
     2
 49
0.5
 62
   256
  6
BYLAYER
 49
-0.5
 62
   256
  6
BYLAYER
  0
ACDBPLACEHOLDER
  5
8
102
{ACAD_REACTORS
330
9
102
}
330
9
100
AcDbPlaceHolder
280
     0
  0
ACAD_PROXY_OBJECT
  5
37
102
{ACAD_REACTORS
330
34
102
}
330
34
100
AcDbProxyObject
 90
      499
 91
      506
 93
     1841
310
4214DD185B99185C9928B81E85EB51B8AE3F2E07A17AD46E2B8FC02B5E8DC0F42B1CFD028000000C1008070000C3001FDFF8000000C1003FBFF000000182007F7FE00000030400FEFFC00000060801FDFF8000000C1003FBFF00000018200000000000000681FA0B0000001820100E000186003FBFF000000182007F7FE000
310
00030400FEFFC00000060801FDFF8000000C1003FBFF000000182007F7FE000000304000AD7A3703D0AC73F4160000003040201C00030C007F7FE00000030400FEFFC00000060801FDFF8000000C1003FBFF000000182007F7FE00000030400FEFFC000000608000
340
1C
340
1C
340
1C
 94
        0
1001
ACAD
1000
AcadProxyRoundTripData
1071
      503
1071
   393239
1070
     0
  0
DICTIONARYVAR
  5
170
102
{ACAD_REACTORS
330
16F
102
}
330
16F
100
DictionaryVariables
280
     0
  1
STANDARD
  0
DICTIONARYVAR
  5
181
102
{ACAD_REACTORS
330
16F
102
}
330
16F
100
DictionaryVariables
280
     0
  1
1
  0
DICTIONARYVAR
  5
180
102
{ACAD_REACTORS
330
16F
102
}
330
16F
100
DictionaryVariables
280
     0
  1
1
  0
DICTIONARYVAR
  5
182
102
{ACAD_REACTORS
330
16F
102
}
330
16F
100
DictionaryVariables
280
     0
  1

  0
XRECORD
  5
191
102
{ACAD_REACTORS
330
190
102
}
330
190
100
AcDbXrecord
 90
        1
  0
XRECORD
  5
192
102
{ACAD_REACTORS
330
190
102
}
330
190
100
AcDbXrecord
 90
       70
  0
XRECORD
  5
193
102
{ACAD_REACTORS
330
190
102
}
330
190
100
AcDbXrecord
  1

  0
XRECORD
  5
194
102
{ACAD_REACTORS
330
190
102
}
330
190
100
AcDbXrecord
  1

  0
XRECORD
  5
195
102
{ACAD_REACTORS
330
190
102
}
330
190
100
AcDbXrecord
340
F
  0
XRECORD
  5
196
102
{ACAD_REACTORS
330
190
102
}
330
190
100
AcDbXrecord
340
31
  0
XRECORD
  5
197
102
{ACAD_REACTORS
330
190
102
}
330
190
100
AcDbXrecord
340
9
  0
XRECORD
  5
198
102
{ACAD_REACTORS
330
190
102
}
330
190
100
AcDbXrecord
 90
    10781
  0
XRECORD
  5
199
102
{ACAD_REACTORS
330
190
102
}
330
190
100
AcDbXrecord
 90
        0
  0
XRECORD
  5
19A
102
{ACAD_REACTORS
330
190
102
}
330
190
100
AcDbXrecord
 90
        0
  0
XRECORD
  5
19B
102
{ACAD_REACTORS
330
190
102
}
330
190
100
AcDbXrecord
  1
{DF2B3892-4343-46C7-A147-E739C97A1FDE}
  0
XRECORD
  5
19C
102
{ACAD_REACTORS
330
190
102
}
330
190
100
AcDbXrecord
  1
{10DC3437-84D2-4E4F-A907-9FDA0C9EC37D}
  0
XRECORD
  5
19D
102
{ACAD_REACTORS
330
190
102
}
330
190
100
AcDbXrecord
 40
0.0
  0
XRECORD
  5
19E
102
{ACAD_REACTORS
330
190
102
}
330
190
100
AcDbXrecord
1000
DSTYLE
1002
{
1070
    79
 70
     2
1070
   341
340
28
1070
   342
340
28
1002
}
  0
XRECORD
  5
19F
102
{ACAD_REACTORS
330
190
102
}
330
190
100
AcDbXrecord
340
0
  0
XRECORD
  5
1A0
102
{ACAD_REACTORS
330
190
102
}
330
190
100
AcDbXrecord
 70
     0
  0
XRECORD
  5
1A1
102
{ACAD_REACTORS
330
190
102
}
330
190
100
AcDbXrecord
340
0
  0
XRECORD
  5
1A2
102
{ACAD_REACTORS
330
190
102
}
330
190
100
AcDbXrecord
 10
0.0
 20
0.0
 30
0.0
  0
XRECORD
  5
1A3
102
{ACAD_REACTORS
330
190
102
}
330
190
100
AcDbXrecord
 10
0.0
 20
0.0
 30
0.0
  0
XRECORD
  5
1A4
102
{ACAD_REACTORS
330
190
102
}
330
190
100
AcDbXrecord
 10
0.0
 20
0.0
 30
0.0
  0
XRECORD
  5
1A5
102
{ACAD_REACTORS
330
190
102
}
330
190
100
AcDbXrecord
 10
0.0
 20
0.0
 30
0.0
  0
XRECORD
  5
1A6
102
{ACAD_REACTORS
330
190
102
}
330
190
100
AcDbXrecord
 10
0.0
 20
0.0
 30
0.0
  0
XRECORD
  5
1A7
102
{ACAD_REACTORS
330
190
102
}
330
190
100
AcDbXrecord
 10
0.0
 20
0.0
 30
0.0
  0
XRECORD
  5
1A8
102
{ACAD_REACTORS
330
190
102
}
330
190
100
AcDbXrecord
340
0
  0
XRECORD
  5
1A9
102
{ACAD_REACTORS
330
190
102
}
330
190
100
AcDbXrecord
 70
     0
  0
XRECORD
  5
1AA
102
{ACAD_REACTORS
330
190
102
}
330
190
100
AcDbXrecord
340
0
  0
XRECORD
  5
1AB
102
{ACAD_REACTORS
330
190
102
}
330
190
100
AcDbXrecord
 10
0.0
 20
0.0
 30
0.0
  0
XRECORD
  5
1AC
102
{ACAD_REACTORS
330
190
102
}
330
190
100
AcDbXrecord
 10
0.0
 20
0.0
 30
0.0
  0
XRECORD
  5
1AD
102
{ACAD_REACTORS
330
190
102
}
330
190
100
AcDbXrecord
 10
0.0
 20
0.0
 30
0.0
  0
XRECORD
  5
1AE
102
{ACAD_REACTORS
330
190
102
}
330
190
100
AcDbXrecord
 10
0.0
 20
0.0
 30
0.0
  0
XRECORD
  5
1AF
102
{ACAD_REACTORS
330
190
102
}
330
190
100
AcDbXrecord
 10
0.0
 20
0.0
 30
0.0
  0
XRECORD
  5
1B0
102
{ACAD_REACTORS
330
190
102
}
330
190
100
AcDbXrecord
 10
0.0
 20
0.0
 30
0.0
  0
ENDSEC
  0
EOF
