  0
SECTION
  2
HEADER
  9
$ACADVER
  1
AC1009
  9
$INSBASE
 10
385.32281318653202
 20
475.3701953953348
 30
0.0
  9
$EXTMIN
 10
190.53906467992229
 20
427.33630559143648
 30
-0.0015258207003583
  9
$EXTMAX
 10
408.37315514098509
 20
498.3958752951537
 30
0.0000000349246037
  9
$LIMMIN
 10
0.0
 20
0.0
  9
$LIMMAX
 10
841.0
 20
594.0
  9
$ORTHOMODE
 70
     1
  9
$REGENMODE
 70
     1
  9
$FILLMODE
 70
     1
  9
$QTEXTMODE
 70
     0
  9
$MIRRTEXT
 70
     0
  9
$DRAGMODE
 70
     2
  9
$LTSCALE
 40
0.3
  9
$OSMODE
 70
    55
  9
$ATTMODE
 70
     1
  9
$TEXTSIZE
 40
0.2
  9
$TRACEWID
 40
0.05
  9
$TEXTSTYLE
  7
STANDARD
  9
$CLAYER
  8
0
  9
$CELTYPE
  6
BYLAYER
  9
$CECOLOR
 62
   256
  9
$DIMSCALE
 40
2.0
  9
$DIMASZ
 40
2.0
  9
$DIMEXO
 40
2.0
  9
$DIMDLI
 40
8.0
  9
$DIMRND
 40
0.0
  9
$DIMDLE
 40
0.0
  9
$DIMEXE
 40
0.5
  9
$DIMTP
 40
0.0
  9
$DIMTM
 40
0.0
  9
$DIMTXT
 40
2.0
  9
$DIMCEN
 40
0.09
  9
$DIMTSZ
 40
0.0
  9
$DIMTOL
 70
     0
  9
$DIMLIM
 70
     0
  9
$DIMTIH
 70
     0
  9
$DIMTOH
 70
     0
  9
$DIMSE1
 70
     0
  9
$DIMSE2
 70
     0
  9
$DIMTAD
 70
     1
  9
$DIMZIN
 70
     9
  9
$DIMBLK
  1
OPEN
  9
$DIMASO
 70
     1
  9
$DIMSHO
 70
     1
  9
$DIMPOST
  1

  9
$DIMAPOST
  1

  9
$DIMALT
 70
     0
  9
$DIMALTD
 70
     2
  9
$DIMALTF
 40
25.399999999999999
  9
$DIMLFAC
 40
1.0
  9
$DIMTOFL
 70
     1
  9
$DIMTVP
 40
0.0
  9
$DIMTIX
 70
     0
  9
$DIMSOXD
 70
     0
  9
$DIMSAH
 70
     0
  9
$DIMBLK1
  1

  9
$DIMBLK2
  1

  9
$DIMSTYLE
  2
STANDARD
  9
$DIMCLRD
 70
     0
  9
$DIMCLRE
 70
     0
  9
$DIMCLRT
 70
     0
  9
$DIMTFAC
 40
1.0
  9
$DIMGAP
 40
0.5
  9
$LUNITS
 70
     2
  9
$LUPREC
 70
     4
  9
$SKETCHINC
 40
0.1
  9
$FILLETRAD
 40
0.5
  9
$AUNITS
 70
     0
  9
$AUPREC
 70
     0
  9
$MENU
  1
ACAD
  9
$ELEVATION
 40
0.0
  9
$PELEVATION
 40
0.0
  9
$THICKNESS
 40
0.0
  9
$LIMCHECK
 70
     0
  9
$BLIPMODE
 70
     0
  9
$CHAMFERA
 40
0.3
  9
$CHAMFERB
 40
0.3
  9
$SKPOLY
 70
     0
  9
$TDCREATE
 40
2311949.162056007
  9
$TDUPDATE
 40
2453452.9948025108
  9
$TDINDWG
 40
0.3985964583
  9
$TDUSRTIMER
 40
0.3985960995
  9
$USRTIMER
 70
     1
  9
$ANGBASE
 50
0.0
  9
$ANGDIR
 70
     0
  9
$PDMODE
 70
     3
  9
$PDSIZE
 40
0.0
  9
$PLINEWID
 40
0.0
  9
$COORDS
 70
     1
  9
$SPLFRAME
 70
     0
  9
$SPLINETYPE
 70
     6
  9
$SPLINESEGS
 70
     8
  9
$ATTDIA
 70
     0
  9
$ATTREQ
 70
     1
  9
$HANDLING
 70
 10241
  9
$HANDSEED
  5
3BB
  9
$SURFTAB1
 70
     6
  9
$SURFTAB2
 70
     6
  9
$SURFTYPE
 70
     6
  9
$SURFU
 70
     6
  9
$SURFV
 70
     6
  9
$UCSNAME
  2

  9
$UCSORG
 10
0.0
 20
0.0
 30
0.0
  9
$UCSXDIR
 10
1.0
 20
0.0
 30
0.0
  9
$UCSYDIR
 10
0.0
 20
1.0
 30
0.0
  9
$PUCSNAME
  2

  9
$PUCSORG
 10
0.0
 20
0.0
 30
0.0
  9
$PUCSXDIR
 10
1.0
 20
0.0
 30
0.0
  9
$PUCSYDIR
 10
0.0
 20
1.0
 30
0.0
  9
$USERI1
 70
     0
  9
$USERI2
 70
     0
  9
$USERI3
 70
     0
  9
$USERI4
 70
     0
  9
$USERI5
 70
     0
  9
$USERR1
 40
0.0
  9
$USERR2
 40
0.0
  9
$USERR3
 40
0.0
  9
$USERR4
 40
0.0
  9
$USERR5
 40
0.0
  9
$WORLDVIEW
 70
     1
  9
$SHADEDGE
 70
     3
  9
$SHADEDIF
 70
    70
  9
$TILEMODE
 70
     1
  9
$MAXACTVP
 70
    64
  9
$PLIMCHECK
 70
     0
  9
$PEXTMIN
 10
1.0000000000000000E+020
 20
1.0000000000000000E+020
 30
1.0000000000000000E+020
  9
$PEXTMAX
 10
-1.0000000000000000E+020
 20
-1.0000000000000000E+020
 30
-1.0000000000000000E+020
  9
$PLIMMIN
 10
0.0
 20
0.0
  9
$PLIMMAX
 10
12.0
 20
9.0
  9
$UNITMODE
 70
     0
  9
$VISRETAIN
 70
     1
  9
$PLINEGEN
 70
     0
  9
$PSLTSCALE
 70
     1
  0
ENDSEC
  0
SECTION
  2
TABLES
  0
TABLE
  2
VPORT
 70
     3
  0
VPORT
  2
*ACTIVE
 70
     0
 10
0.0
 20
0.0
 11
1.0
 21
1.0
 12
299.5029151078565
 22
464.25349480358801
 13
0.0
 23
0.0
 14
1.0
 24
1.0
 15
0.0
 25
0.0
 16
0.0
 26
0.0
 36
1.0
 17
0.0
 27
0.0
 37
0.0
 40
109.836250017445
 41
1.899799599198396
 42
50.0
 43
0.0
 44
0.0
 50
0.0
 51
0.0
 71
     0
 72
   100
 73
     1
 74
     1
 75
     0
 76
     0
 77
     0
 78
     0
  0
ENDTAB
  0
TABLE
  2
LTYPE
 70
     2
  0
LTYPE
  2
CONTINUOUS
 70
     0
  3
Solid line
 72
    65
 73
     0
 40
0.0
  0
LTYPE
  2
DASHDOT
 70
     0
  3
Dash dot __ . __ . __ . __ . __ . __ . __ . __
 72
    65
 73
     4
 40
25.399999999999999
 49
12.699999999999999
 49
-6.3499999999999988
 49
0.0
 49
-6.3499999999999988
  0
ENDTAB
  0
TABLE
  2
LAYER
 70
     3
  0
LAYER
  2
0
 70
     0
 62
     7
  6
CONTINUOUS
  0
LAYER
  2
2
 70
     0
 62
     7
  6
CONTINUOUS
  0
LAYER
  2
4
 70
     0
 62
     6
  6
DASHDOT
  0
ENDTAB
  0
TABLE
  2
STYLE
 70
     1
  0
STYLE
  2
STANDARD
 70
     0
 40
0.0
 41
1.0
 50
0.0
 71
     0
 42
0.2
  3
romans.shx
  4
BIGFONT.shx
  0
ENDTAB
  0
TABLE
  2
VIEW
 70
     0
  0
ENDTAB
  0
TABLE
  2
UCS
 70
     0
  0
ENDTAB
  0
TABLE
  2
APPID
 70
     2
  0
APPID
  2
ACAD
 70
     0
  0
APPID
  2
ACAD_PSEXT
 70
     0
  0
ENDTAB
  0
TABLE
  2
DIMSTYLE
 70
     1
  0
DIMSTYLE
  2
STANDARD
 70
     0
  3

  4

  5
OPEN
  6

  7

 40
2.0
 41
2.0
 42
2.0
 43
8.0
 44
0.5
 45
0.0
 46
0.0
 47
0.0
 48
0.0
140
2.0
141
0.09
142
0.0
143
25.399999999999999
144
1.0
145
0.0
146
1.0
147
0.5
 71
     0
 72
     0
 73
     0
 74
     0
 75
     0
 76
     0
 77
     1
 78
     9
170
     0
171
     2
172
     1
173
     0
174
     0
175
     0
176
     0
177
     0
178
     0
  0
ENDTAB
  0
ENDSEC
  0
SECTION
  2
BLOCKS
  0
BLOCK
  8
0
  2
$MODEL_SPACE
 70
     0
 10
0.0
 20
0.0
 30
0.0
  3
$MODEL_SPACE
  1

  0
ENDBLK
  5
B
  8
0
  0
BLOCK
 67
     1
  8
0
  2
$PAPER_SPACE
 70
     0
 10
0.0
 20
0.0
 30
0.0
  3
$PAPER_SPACE
  1

  0
ENDBLK
  5
13
 67
     1
  8
0
  0
BLOCK
  8
0
  2
_OPEN
 70
     0
 10
0.0
 20
0.0
 30
0.0
  3
_OPEN
  1

  0
LINE
  5
27
  8
0
 62
     0
 10
-0.965926
 20
0.258819
 30
0.0
 11
0.0
 21
0.0
 31
0.0
  0
LINE
  5
28
  8
0
 62
     0
 10
0.0
 20
0.0
 30
0.0
 11
-0.965926
 21
-0.258819
 31
0.0
  0
LINE
  5
29
  8
0
 62
     0
 10
0.0
 20
0.0
 30
0.0
 11
-1.0
 21
0.0
 31
0.0
  0
ENDBLK
  5
2B
  8
0
  0
ENDSEC
  0
SECTION
  2
ENTITIES
  0
POLYLINE
  5
31
  8
2
 10
194.79194573120694
 20
482.69030949987177
 30
0.0
 66
     1
 70
     8
  0
VERTEX
  8
2
  5
6F
 10
194.792
 20
482.690
 30
0.000000
  70
    32
  0
VERTEX
  8
2
  5
70
 10
194.673
 20
482.619
 30
0.000000
  70
    32
  0
VERTEX
  8
2
  5
71
 10
194.556
 20
482.546
 30
0.000000
  70
    32
  0
VERTEX
  8
2
  5
72
 10
194.440
 20
482.472
 30
0.000000
  70
    32
  0
VERTEX
  8
2
  5
73
 10
194.325
 20
482.395
 30
0.000000
  70
    32
  0
VERTEX
  8
2
  5
74
 10
194.211
 20
482.316
 30
0.000000
  70
    32
  0
VERTEX
  8
2
  5
75
 10
194.099
 20
482.236
 30
0.000000
  70
    32
  0
VERTEX
  8
2
  5
76
 10
193.988
 20
482.154
 30
0.000000
  70
    32
  0
VERTEX
  8
2
  5
77
 10
193.878
 20
482.070
 30
0.000000
  70
    32
  0
VERTEX
  8
2
  5
78
 10
193.770
 20
481.984
 30
0.000000
  70
    32
  0
VERTEX
  8
2
  5
79
 10
193.663
 20
481.897
 30
0.000000
  70
    32
  0
VERTEX
  8
2
  5
7A
 10
193.558
 20
481.808
 30
0.000000
  70
    32
  0
VERTEX
  8
2
  5
7B
 10
193.454
 20
481.717
 30
0.000000
  70
    32
  0
VERTEX
  8
2
  5
7C
 10
193.351
 20
481.624
 30
0.000000
  70
    32
  0
VERTEX
  8
2
  5
7D
 10
193.250
 20
481.530
 30
0.000000
  70
    32
  0
VERTEX
  8
2
  5
7E
 10
193.151
 20
481.434
 30
0.000000
  70
    32
  0
VERTEX
  8
2
  5
7F
 10
193.053
 20
481.337
 30
0.000000
  70
    32
  0
VERTEX
  8
2
  5
80
 10
192.957
 20
481.238
 30
0.000000
  70
    32
  0
VERTEX
  8
2
  5
81
 10
192.862
 20
481.138
 30
0.000000
  70
    32
  0
VERTEX
  8
2
  5
82
 10
192.769
 20
481.036
 30
0.000000
  70
    32
  0
VERTEX
  8
2
  5
83
 10
192.678
 20
480.932
 30
0.000000
  70
    32
  0
VERTEX
  8
2
  5
84
 10
192.588
 20
480.827
 30
0.000000
  70
    32
  0
VERTEX
  8
2
  5
85
 10
192.500
 20
480.721
 30
0.000000
  70
    32
  0
VERTEX
  8
2
  5
86
 10
192.414
 20
480.613
 30
0.000000
  70
    32
  0
VERTEX
  8
2
  5
87
 10
192.329
 20
480.504
 30
0.000000
  70
    32
  0
VERTEX
  8
2
  5
88
 10
192.247
 20
480.394
 30
0.000000
  70
    32
  0
VERTEX
  8
2
  5
89
 10
192.166
 20
480.282
 30
0.000000
  70
    32
  0
VERTEX
  8
2
  5
8A
 10
192.087
 20
480.169
 30
0.000000
  70
    32
  0
VERTEX
  8
2
  5
8B
 10
192.010
 20
480.054
 30
0.000000
  70
    32
  0
VERTEX
  8
2
  5
8C
 10
191.935
 20
479.939
 30
0.000000
  70
    32
  0
VERTEX
  8
2
  5
8D
 10
191.861
 20
479.822
 30
0.000000
  70
    32
  0
VERTEX
  8
2
  5
8E
 10
191.790
 20
479.704
 30
0.000000
  70
    32
  0
VERTEX
  8
2
  5
8F
 10
191.720
 20
479.585
 30
0.000000
  70
    32
  0
VERTEX
  8
2
  5
90
 10
191.653
 20
479.464
 30
0.000000
  70
    32
  0
VERTEX
  8
2
  5
91
 10
191.587
 20
479.343
 30
0.000000
  70
    32
  0
VERTEX
  8
2
  5
92
 10
191.523
 20
479.221
 30
0.000000
  70
    32
  0
VERTEX
  8
2
  5
93
 10
191.462
 20
479.097
 30
0.000000
  70
    32
  0
VERTEX
  8
2
  5
94
 10
191.402
 20
478.973
 30
0.000000
  70
    32
  0
VERTEX
  8
2
  5
95
 10
191.345
 20
478.848
 30
0.000000
  70
    32
  0
VERTEX
  8
2
  5
96
 10
191.289
 20
478.722
 30
0.000000
  70
    32
  0
VERTEX
  8
2
  5
97
 10
191.235
 20
478.595
 30
0.000000
  70
    32
  0
VERTEX
  8
2
  5
98
 10
191.184
 20
478.467
 30
0.000000
  70
    32
  0
VERTEX
  8
2
  5
99
 10
191.135
 20
478.338
 30
0.000000
  70
    32
  0
VERTEX
  8
2
  5
9A
 10
191.088
 20
478.208
 30
0.000000
  70
    32
  0
VERTEX
  8
2
  5
9B
 10
191.042
 20
478.078
 30
0.000000
  70
    32
  0
VERTEX
  8
2
  5
9C
 10
190.999
 20
477.947
 30
0.000000
  70
    32
  0
VERTEX
  8
2
  5
9D
 10
190.959
 20
477.816
 30
0.000000
  70
    32
  0
VERTEX
  8
2
  5
9E
 10
190.920
 20
477.683
 30
0.000000
  70
    32
  0
VERTEX
  8
2
  5
9F
 10
190.883
 20
477.550
 30
0.000000
  70
    32
  0
VERTEX
  8
2
  5
A0
 10
190.849
 20
477.417
 30
0.000000
  70
    32
  0
VERTEX
  8
2
  5
A1
 10
190.817
 20
477.283
 30
0.000000
  70
    32
  0
VERTEX
  8
2
  5
A2
 10
190.787
 20
477.148
 30
0.000000
  70
    32
  0
VERTEX
  8
2
  5
A3
 10
190.759
 20
477.013
 30
0.000000
  70
    32
  0
VERTEX
  8
2
  5
A4
 10
190.733
 20
476.878
 30
0.000000
  70
    32
  0
VERTEX
  8
2
  5
A5
 10
190.710
 20
476.742
 30
0.000000
  70
    32
  0
VERTEX
  8
2
  5
A6
 10
190.689
 20
476.606
 30
0.000000
  70
    32
  0
VERTEX
  8
2
  5
A7
 10
190.670
 20
476.470
 30
0.000000
  70
    32
  0
VERTEX
  8
2
  5
A8
 10
190.653
 20
476.333
 30
0.000000
  70
    32
  0
VERTEX
  8
2
  5
A9
 10
190.638
 20
476.196
 30
0.000000
  70
    32
  0
VERTEX
  8
2
  5
AA
 10
190.626
 20
476.058
 30
0.000000
  70
    32
  0
VERTEX
  8
2
  5
AB
 10
190.616
 20
475.921
 30
0.000000
  70
    32
  0
VERTEX
  8
2
  5
AC
 10
190.608
 20
475.783
 30
0.000000
  70
    32
  0
VERTEX
  8
2
  5
AD
 10
190.602
 20
475.646
 30
0.000000
  70
    32
  0
VERTEX
  8
2
  5
AE
 10
190.599
 20
475.508
 30
0.000000
  70
    32
  0
VERTEX
  8
2
  5
AF
 10
190.598
 20
475.370
 30
0.000000
  70
    32
  0
VERTEX
  8
2
  5
B0
 10
190.599
 20
475.232
 30
0.000000
  70
    32
  0
VERTEX
  8
2
  5
B1
 10
190.602
 20
475.095
 30
0.000000
  70
    32
  0
VERTEX
  8
2
  5
B2
 10
190.608
 20
474.957
 30
0.000000
  70
    32
  0
VERTEX
  8
2
  5
B3
 10
190.616
 20
474.819
 30
0.000000
  70
    32
  0
VERTEX
  8
2
  5
B4
 10
190.626
 20
474.682
 30
0.000000
  70
    32
  0
VERTEX
  8
2
  5
B5
 10
190.638
 20
474.545
 30
0.000000
  70
    32
  0
VERTEX
  8
2
  5
B6
 10
190.653
 20
474.408
 30
0.000000
  70
    32
  0
VERTEX
  8
2
  5
B7
 10
190.670
 20
474.271
 30
0.000000
  70
    32
  0
VERTEX
  8
2
  5
B8
 10
190.689
 20
474.134
 30
0.000000
  70
    32
  0
VERTEX
  8
2
  5
B9
 10
190.710
 20
473.998
 30
0.000000
  70
    32
  0
VERTEX
  8
2
  5
BA
 10
190.733
 20
473.862
 30
0.000000
  70
    32
  0
VERTEX
  8
2
  5
BB
 10
190.759
 20
473.727
 30
0.000000
  70
    32
  0
VERTEX
  8
2
  5
BC
 10
190.787
 20
473.592
 30
0.000000
  70
    32
  0
VERTEX
  8
2
  5
BD
 10
190.817
 20
473.458
 30
0.000000
  70
    32
  0
VERTEX
  8
2
  5
BE
 10
190.849
 20
473.323
 30
0.000000
  70
    32
  0
VERTEX
  8
2
  5
BF
 10
190.883
 20
473.190
 30
0.000000
  70
    32
  0
VERTEX
  8
2
  5
C0
 10
190.920
 20
473.057
 30
0.000000
  70
    32
  0
VERTEX
  8
2
  5
C1
 10
190.959
 20
472.925
 30
0.000000
  70
    32
  0
VERTEX
  8
2
  5
C2
 10
190.999
 20
472.793
 30
0.000000
  70
    32
  0
VERTEX
  8
2
  5
C3
 10
191.042
 20
472.662
 30
0.000000
  70
    32
  0
VERTEX
  8
2
  5
C4
 10
191.088
 20
472.532
 30
0.000000
  70
    32
  0
VERTEX
  8
2
  5
C5
 10
191.135
 20
472.402
 30
0.000000
  70
    32
  0
VERTEX
  8
2
  5
C6
 10
191.184
 20
472.274
 30
0.000000
  70
    32
  0
VERTEX
  8
2
  5
C7
 10
191.235
 20
472.146
 30
0.000000
  70
    32
  0
VERTEX
  8
2
  5
C8
 10
191.289
 20
472.019
 30
0.000000
  70
    32
  0
VERTEX
  8
2
  5
C9
 10
191.345
 20
471.893
 30
0.000000
  70
    32
  0
VERTEX
  8
2
  5
CA
 10
191.402
 20
471.767
 30
0.000000
  70
    32
  0
VERTEX
  8
2
  5
CB
 10
191.462
 20
471.643
 30
0.000000
  70
    32
  0
VERTEX
  8
2
  5
CC
 10
191.523
 20
471.520
 30
0.000000
  70
    32
  0
VERTEX
  8
2
  5
CD
 10
191.587
 20
471.397
 30
0.000000
  70
    32
  0
VERTEX
  8
2
  5
CE
 10
191.653
 20
471.276
 30
0.000000
  70
    32
  0
VERTEX
  8
2
  5
CF
 10
191.720
 20
471.156
 30
0.000000
  70
    32
  0
VERTEX
  8
2
  5
D0
 10
191.790
 20
471.037
 30
0.000000
  70
    32
  0
VERTEX
  8
2
  5
D1
 10
191.861
 20
470.919
 30
0.000000
  70
    32
  0
VERTEX
  8
2
  5
D2
 10
191.935
 20
470.802
 30
0.000000
  70
    32
  0
VERTEX
  8
2
  5
D3
 10
192.010
 20
470.686
 30
0.000000
  70
    32
  0
VERTEX
  8
2
  5
D4
 10
192.087
 20
470.572
 30
0.000000
  70
    32
  0
VERTEX
  8
2
  5
D5
 10
192.166
 20
470.459
 30
0.000000
  70
    32
  0
VERTEX
  8
2
  5
D6
 10
192.247
 20
470.347
 30
0.000000
  70
    32
  0
VERTEX
  8
2
  5
D7
 10
192.329
 20
470.236
 30
0.000000
  70
    32
  0
VERTEX
  8
2
  5
D8
 10
192.414
 20
470.127
 30
0.000000
  70
    32
  0
VERTEX
  8
2
  5
D9
 10
192.500
 20
470.019
 30
0.000000
  70
    32
  0
VERTEX
  8
2
  5
DA
 10
192.588
 20
469.913
 30
0.000000
  70
    32
  0
VERTEX
  8
2
  5
DB
 10
192.678
 20
469.808
 30
0.000000
  70
    32
  0
VERTEX
  8
2
  5
DC
 10
192.769
 20
469.705
 30
0.000000
  70
    32
  0
VERTEX
  8
2
  5
DD
 10
192.862
 20
469.603
 30
0.000000
  70
    32
  0
VERTEX
  8
2
  5
DE
 10
192.957
 20
469.502
 30
0.000000
  70
    32
  0
VERTEX
  8
2
  5
DF
 10
193.053
 20
469.403
 30
0.000000
  70
    32
  0
VERTEX
  8
2
  5
E0
 10
193.151
 20
469.306
 30
0.000000
  70
    32
  0
VERTEX
  8
2
  5
E1
 10
193.250
 20
469.210
 30
0.000000
  70
    32
  0
VERTEX
  8
2
  5
E2
 10
193.351
 20
469.116
 30
0.000000
  70
    32
  0
VERTEX
  8
2
  5
E3
 10
193.454
 20
469.024
 30
0.000000
  70
    32
  0
VERTEX
  8
2
  5
E4
 10
193.558
 20
468.933
 30
0.000000
  70
    32
  0
VERTEX
  8
2
  5
E5
 10
193.663
 20
468.844
 30
0.000000
  70
    32
  0
VERTEX
  8
2
  5
E6
 10
193.770
 20
468.756
 30
0.000000
  70
    32
  0
VERTEX
  8
2
  5
E7
 10
193.878
 20
468.670
 30
0.000000
  70
    32
  0
VERTEX
  8
2
  5
E8
 10
193.988
 20
468.587
 30
0.000000
  70
    32
  0
VERTEX
  8
2
  5
E9
 10
194.099
 20
468.504
 30
0.000000
  70
    32
  0
VERTEX
  8
2
  5
EA
 10
194.211
 20
468.424
 30
0.000000
  70
    32
  0
VERTEX
  8
2
  5
EB
 10
194.325
 20
468.345
 30
0.000000
  70
    32
  0
VERTEX
  8
2
  5
EC
 10
194.440
 20
468.269
 30
0.000000
  70
    32
  0
VERTEX
  8
2
  5
ED
 10
194.556
 20
468.194
 30
0.000000
  70
    32
  0
VERTEX
  8
2
  5
EE
 10
194.673
 20
468.121
 30
0.000000
  70
    32
  0
VERTEX
  8
2
  5
EF
 10
194.792
 20
468.050
 30
0.000000
  70
    32
  0
SEQEND
  8
2
  5
F0
  0
POLYLINE
  5
33
  8
2
 10
207.06383848529242
 20
481.72019539533488
 30
0.0
 66
     1
 70
     8
  0
VERTEX
  8
2
  5
F1
 10
207.064
 20
481.720
 30
0.000000
  70
    32
  0
VERTEX
  8
2
  5
F2
 10
206.818
 20
481.958
 30
0.000000
  70
    32
  0
VERTEX
  8
2
  5
F3
 10
206.563
 20
482.186
 30
0.000000
  70
    32
  0
VERTEX
  8
2
  5
F4
 10
206.300
 20
482.405
 30
0.000000
  70
    32
  0
VERTEX
  8
2
  5
F5
 10
206.028
 20
482.614
 30
0.000000
  70
    32
  0
VERTEX
  8
2
  5
F6
 10
205.749
 20
482.814
 30
0.000000
  70
    32
  0
VERTEX
  8
2
  5
F7
 10
205.462
 20
483.003
 30
0.000000
  70
    32
  0
VERTEX
  8
2
  5
F8
 10
205.168
 20
483.182
 30
0.000000
  70
    32
  0
VERTEX
  8
2
  5
F9
 10
204.868
 20
483.350
 30
0.000000
  70
    32
  0
VERTEX
  8
2
  5
FA
 10
204.561
 20
483.507
 30
0.000000
  70
    32
  0
VERTEX
  8
2
  5
FB
 10
204.249
 20
483.653
 30
0.000000
  70
    32
  0
VERTEX
  8
2
  5
FC
 10
203.932
 20
483.788
 30
0.000000
  70
    32
  0
VERTEX
  8
2
  5
FD
 10
203.609
 20
483.911
 30
0.000000
  70
    32
  0
VERTEX
  8
2
  5
FE
 10
203.282
 20
484.022
 30
0.000000
  70
    32
  0
VERTEX
  8
2
  5
FF
 10
202.951
 20
484.122
 30
0.000000
  70
    32
  0
VERTEX
  8
2
  5
100
 10
202.617
 20
484.209
 30
0.000000
  70
    32
  0
VERTEX
  8
2
  5
101
 10
202.279
 20
484.285
 30
0.000000
  70
    32
  0
VERTEX
  8
2
  5
102
 10
201.939
 20
484.348
 30
0.000000
  70
    32
  0
VERTEX
  8
2
  5
103
 10
201.596
 20
484.399
 30
0.000000
  70
    32
  0
VERTEX
  8
2
  5
104
 10
201.252
 20
484.437
 30
0.000000
  70
    32
  0
VERTEX
  8
2
  5
105
 10
200.907
 20
484.463
 30
0.000000
  70
    32
  0
VERTEX
  8
2
  5
106
 10
200.561
 20
484.477
 30
0.000000
  70
    32
  0
VERTEX
  8
2
  5
107
 10
200.214
 20
484.478
 30
0.000000
  70
    32
  0
VERTEX
  8
2
  5
108
 10
199.868
 20
484.466
 30
0.000000
  70
    32
  0
VERTEX
  8
2
  5
109
 10
199.523
 20
484.442
 30
0.000000
  70
    32
  0
VERTEX
  8
2
  5
10A
 10
199.178
 20
484.406
 30
0.000000
  70
    32
  0
VERTEX
  8
2
  5
10B
 10
198.836
 20
484.357
 30
0.000000
  70
    32
  0
VERTEX
  8
2
  5
10C
 10
198.495
 20
484.296
 30
0.000000
  70
    32
  0
VERTEX
  8
2
  5
10D
 10
198.157
 20
484.223
 30
0.000000
  70
    32
  0
VERTEX
  8
2
  5
10E
 10
197.822
 20
484.137
 30
0.000000
  70
    32
  0
VERTEX
  8
2
  5
10F
 10
197.490
 20
484.040
 30
0.000000
  70
    32
  0
VERTEX
  8
2
  5
110
 10
197.162
 20
483.931
 30
0.000000
  70
    32
  0
VERTEX
  8
2
  5
111
 10
196.839
 20
483.809
 30
0.000000
  70
    32
  0
VERTEX
  8
2
  5
112
 10
196.521
 20
483.677
 30
0.000000
  70
    32
  0
VERTEX
  8
2
  5
113
 10
196.208
 20
483.533
 30
0.000000
  70
    32
  0
VERTEX
  8
2
  5
114
 10
195.900
 20
483.378
 30
0.000000
  70
    32
  0
VERTEX
  8
2
  5
115
 10
195.599
 20
483.211
 30
0.000000
  70
    32
  0
VERTEX
  8
2
  5
116
 10
195.304
 20
483.034
 30
0.000000
  70
    32
  0
VERTEX
  8
2
  5
117
 10
195.016
 20
482.847
 30
0.000000
  70
    32
  0
VERTEX
  8
2
  5
118
 10
194.735
 20
482.649
 30
0.000000
  70
    32
  0
VERTEX
  8
2
  5
119
 10
194.462
 20
482.441
 30
0.000000
  70
    32
  0
VERTEX
  8
2
  5
11A
 10
194.197
 20
482.224
 30
0.000000
  70
    32
  0
VERTEX
  8
2
  5
11B
 10
193.941
 20
481.997
 30
0.000000
  70
    32
  0
VERTEX
  8
2
  5
11C
 10
193.694
 20
481.761
 30
0.000000
  70
    32
  0
VERTEX
  8
2
  5
11D
 10
193.455
 20
481.516
 30
0.000000
  70
    32
  0
VERTEX
  8
2
  5
11E
 10
193.226
 20
481.263
 30
0.000000
  70
    32
  0
VERTEX
  8
2
  5
11F
 10
193.007
 20
481.002
 30
0.000000
  70
    32
  0
VERTEX
  8
2
  5
120
 10
192.798
 20
480.733
 30
0.000000
  70
    32
  0
VERTEX
  8
2
  5
121
 10
192.599
 20
480.457
 30
0.000000
  70
    32
  0
VERTEX
  8
2
  5
122
 10
192.411
 20
480.174
 30
0.000000
  70
    32
  0
VERTEX
  8
2
  5
123
 10
192.234
 20
479.884
 30
0.000000
  70
    32
  0
VERTEX
  8
2
  5
124
 10
192.068
 20
479.588
 30
0.000000
  70
    32
  0
VERTEX
  8
2
  5
125
 10
191.913
 20
479.286
 30
0.000000
  70
    32
  0
VERTEX
  8
2
  5
126
 10
191.770
 20
478.979
 30
0.000000
  70
    32
  0
VERTEX
  8
2
  5
127
 10
191.639
 20
478.667
 30
0.000000
  70
    32
  0
VERTEX
  8
2
  5
128
 10
191.519
 20
478.350
 30
0.000000
  70
    32
  0
VERTEX
  8
2
  5
129
 10
191.412
 20
478.029
 30
0.000000
  70
    32
  0
VERTEX
  8
2
  5
12A
 10
191.317
 20
477.705
 30
0.000000
  70
    32
  0
VERTEX
  8
2
  5
12B
 10
191.235
 20
477.378
 30
0.000000
  70
    32
  0
VERTEX
  8
2
  5
12C
 10
191.165
 20
477.047
 30
0.000000
  70
    32
  0
VERTEX
  8
2
  5
12D
 10
191.107
 20
476.715
 30
0.000000
  70
    32
  0
VERTEX
  8
2
  5
12E
 10
191.062
 20
476.380
 30
0.000000
  70
    32
  0
VERTEX
  8
2
  5
12F
 10
191.030
 20
476.044
 30
0.000000
  70
    32
  0
VERTEX
  8
2
  5
130
 10
191.011
 20
475.707
 30
0.000000
  70
    32
  0
VERTEX
  8
2
  5
131
 10
191.005
 20
475.370
 30
0.000000
  70
    32
  0
VERTEX
  8
2
  5
132
 10
191.011
 20
475.033
 30
0.000000
  70
    32
  0
VERTEX
  8
2
  5
133
 10
191.030
 20
474.696
 30
0.000000
  70
    32
  0
VERTEX
  8
2
  5
134
 10
191.062
 20
474.360
 30
0.000000
  70
    32
  0
VERTEX
  8
2
  5
135
 10
191.107
 20
474.026
 30
0.000000
  70
    32
  0
VERTEX
  8
2
  5
136
 10
191.165
 20
473.693
 30
0.000000
  70
    32
  0
VERTEX
  8
2
  5
137
 10
191.235
 20
473.363
 30
0.000000
  70
    32
  0
VERTEX
  8
2
  5
138
 10
191.317
 20
473.035
 30
0.000000
  70
    32
  0
VERTEX
  8
2
  5
139
 10
191.412
 20
472.711
 30
0.000000
  70
    32
  0
VERTEX
  8
2
  5
13A
 10
191.519
 20
472.390
 30
0.000000
  70
    32
  0
VERTEX
  8
2
  5
13B
 10
191.639
 20
472.074
 30
0.000000
  70
    32
  0
VERTEX
  8
2
  5
13C
 10
191.770
 20
471.761
 30
0.000000
  70
    32
  0
VERTEX
  8
2
  5
13D
 10
191.913
 20
471.454
 30
0.000000
  70
    32
  0
VERTEX
  8
2
  5
13E
 10
192.068
 20
471.152
 30
0.000000
  70
    32
  0
VERTEX
  8
2
  5
13F
 10
192.234
 20
470.856
 30
0.000000
  70
    32
  0
VERTEX
  8
2
  5
140
 10
192.411
 20
470.567
 30
0.000000
  70
    32
  0
VERTEX
  8
2
  5
141
 10
192.599
 20
470.283
 30
0.000000
  70
    32
  0
VERTEX
  8
2
  5
142
 10
192.798
 20
470.007
 30
0.000000
  70
    32
  0
VERTEX
  8
2
  5
143
 10
193.007
 20
469.738
 30
0.000000
  70
    32
  0
VERTEX
  8
2
  5
144
 10
193.226
 20
469.477
 30
0.000000
  70
    32
  0
VERTEX
  8
2
  5
145
 10
193.455
 20
469.224
 30
0.000000
  70
    32
  0
VERTEX
  8
2
  5
146
 10
193.694
 20
468.979
 30
0.000000
  70
    32
  0
VERTEX
  8
2
  5
147
 10
193.941
 20
468.743
 30
0.000000
  70
    32
  0
VERTEX
  8
2
  5
148
 10
194.197
 20
468.516
 30
0.000000
  70
    32
  0
VERTEX
  8
2
  5
149
 10
194.462
 20
468.299
 30
0.000000
  70
    32
  0
VERTEX
  8
2
  5
14A
 10
194.735
 20
468.091
 30
0.000000
  70
    32
  0
VERTEX
  8
2
  5
14B
 10
195.016
 20
467.894
 30
0.000000
  70
    32
  0
VERTEX
  8
2
  5
14C
 10
195.304
 20
467.706
 30
0.000000
  70
    32
  0
VERTEX
  8
2
  5
14D
 10
195.599
 20
467.529
 30
0.000000
  70
    32
  0
VERTEX
  8
2
  5
14E
 10
195.900
 20
467.363
 30
0.000000
  70
    32
  0
VERTEX
  8
2
  5
14F
 10
196.208
 20
467.208
 30
0.000000
  70
    32
  0
VERTEX
  8
2
  5
150
 10
196.521
 20
467.064
 30
0.000000
  70
    32
  0
VERTEX
  8
2
  5
151
 10
196.839
 20
466.931
 30
0.000000
  70
    32
  0
VERTEX
  8
2
  5
152
 10
197.162
 20
466.810
 30
0.000000
  70
    32
  0
VERTEX
  8
2
  5
153
 10
197.490
 20
466.700
 30
0.000000
  70
    32
  0
VERTEX
  8
2
  5
154
 10
197.822
 20
466.603
 30
0.000000
  70
    32
  0
VERTEX
  8
2
  5
155
 10
198.157
 20
466.518
 30
0.000000
  70
    32
  0
VERTEX
  8
2
  5
156
 10
198.495
 20
466.444
 30
0.000000
  70
    32
  0
VERTEX
  8
2
  5
157
 10
198.836
 20
466.383
 30
0.000000
  70
    32
  0
VERTEX
  8
2
  5
158
 10
199.178
 20
466.334
 30
0.000000
  70
    32
  0
VERTEX
  8
2
  5
159
 10
199.523
 20
466.298
 30
0.000000
  70
    32
  0
VERTEX
  8
2
  5
15A
 10
199.868
 20
466.274
 30
0.000000
  70
    32
  0
VERTEX
  8
2
  5
15B
 10
200.214
 20
466.263
 30
0.000000
  70
    32
  0
VERTEX
  8
2
  5
15C
 10
200.561
 20
466.264
 30
0.000000
  70
    32
  0
VERTEX
  8
2
  5
15D
 10
200.907
 20
466.277
 30
0.000000
  70
    32
  0
VERTEX
  8
2
  5
15E
 10
201.252
 20
466.303
 30
0.000000
  70
    32
  0
VERTEX
  8
2
  5
15F
 10
201.596
 20
466.342
 30
0.000000
  70
    32
  0
VERTEX
  8
2
  5
160
 10
201.939
 20
466.393
 30
0.000000
  70
    32
  0
VERTEX
  8
2
  5
161
 10
202.279
 20
466.456
 30
0.000000
  70
    32
  0
VERTEX
  8
2
  5
162
 10
202.617
 20
466.531
 30
0.000000
  70
    32
  0
VERTEX
  8
2
  5
163
 10
202.951
 20
466.619
 30
0.000000
  70
    32
  0
VERTEX
  8
2
  5
164
 10
203.282
 20
466.718
 30
0.000000
  70
    32
  0
VERTEX
  8
2
  5
165
 10
203.609
 20
466.830
 30
0.000000
  70
    32
  0
VERTEX
  8
2
  5
166
 10
203.932
 20
466.953
 30
0.000000
  70
    32
  0
VERTEX
  8
2
  5
167
 10
204.249
 20
467.087
 30
0.000000
  70
    32
  0
VERTEX
  8
2
  5
168
 10
204.561
 20
467.233
 30
0.000000
  70
    32
  0
VERTEX
  8
2
  5
169
 10
204.868
 20
467.390
 30
0.000000
  70
    32
  0
VERTEX
  8
2
  5
16A
 10
205.168
 20
467.558
 30
0.000000
  70
    32
  0
VERTEX
  8
2
  5
16B
 10
205.462
 20
467.737
 30
0.000000
  70
    32
  0
VERTEX
  8
2
  5
16C
 10
205.749
 20
467.926
 30
0.000000
  70
    32
  0
VERTEX
  8
2
  5
16D
 10
206.028
 20
468.126
 30
0.000000
  70
    32
  0
VERTEX
  8
2
  5
16E
 10
206.300
 20
468.335
 30
0.000000
  70
    32
  0
VERTEX
  8
2
  5
16F
 10
206.563
 20
468.554
 30
0.000000
  70
    32
  0
VERTEX
  8
2
  5
170
 10
206.818
 20
468.783
 30
0.000000
  70
    32
  0
VERTEX
  8
2
  5
171
 10
207.064
 20
469.020
 30
0.000000
  70
    32
  0
SEQEND
  8
2
  5
172
  0
POLYLINE
  5
34
  8
2
 10
206.7008504345946
 20
481.72019539533488
 30
0.0
 66
     1
 70
     8
  0
VERTEX
  8
2
  5
173
 10
206.701
 20
481.720
 30
0.000000
  70
    32
  0
VERTEX
  8
2
  5
174
 10
206.484
 20
481.918
 30
0.000000
  70
    32
  0
VERTEX
  8
2
  5
175
 10
206.261
 20
482.108
 30
0.000000
  70
    32
  0
VERTEX
  8
2
  5
176
 10
206.032
 20
482.289
 30
0.000000
  70
    32
  0
VERTEX
  8
2
  5
177
 10
205.796
 20
482.461
 30
0.000000
  70
    32
  0
VERTEX
  8
2
  5
178
 10
205.555
 20
482.624
 30
0.000000
  70
    32
  0
VERTEX
  8
2
  5
179
 10
205.309
 20
482.778
 30
0.000000
  70
    32
  0
VERTEX
  8
2
  5
17A
 10
205.058
 20
482.922
 30
0.000000
  70
    32
  0
VERTEX
  8
2
  5
17B
 10
204.802
 20
483.057
 30
0.000000
  70
    32
  0
VERTEX
  8
2
  5
17C
 10
204.541
 20
483.181
 30
0.000000
  70
    32
  0
VERTEX
  8
2
  5
17D
 10
204.277
 20
483.295
 30
0.000000
  70
    32
  0
VERTEX
  8
2
  5
17E
 10
204.009
 20
483.400
 30
0.000000
  70
    32
  0
VERTEX
  8
2
  5
17F
 10
203.738
 20
483.494
 30
0.000000
  70
    32
  0
VERTEX
  8
2
  5
180
 10
203.463
 20
483.577
 30
0.000000
  70
    32
  0
VERTEX
  8
2
  5
181
 10
203.186
 20
483.650
 30
0.000000
  70
    32
  0
VERTEX
  8
2
  5
182
 10
202.907
 20
483.712
 30
0.000000
  70
    32
  0
VERTEX
  8
2
  5
183
 10
202.626
 20
483.764
 30
0.000000
  70
    32
  0
VERTEX
  8
2
  5
184
 10
202.343
 20
483.804
 30
0.000000
  70
    32
  0
VERTEX
  8
2
  5
185
 10
202.059
 20
483.834
 30
0.000000
  70
    32
  0
VERTEX
  8
2
  5
186
 10
201.775
 20
483.853
 30
0.000000
  70
    32
  0
VERTEX
  8
2
  5
187
 10
201.489
 20
483.861
 30
0.000000
  70
    32
  0
VERTEX
  8
2
  5
188
 10
201.204
 20
483.858
 30
0.000000
  70
    32
  0
VERTEX
  8
2
  5
189
 10
200.919
 20
483.844
 30
0.000000
  70
    32
  0
VERTEX
  8
2
  5
18A
 10
200.635
 20
483.819
 30
0.000000
  70
    32
  0
VERTEX
  8
2
  5
18B
 10
200.352
 20
483.784
 30
0.000000
  70
    32
  0
VERTEX
  8
2
  5
18C
 10
200.070
 20
483.737
 30
0.000000
  70
    32
  0
VERTEX
  8
2
  5
18D
 10
199.790
 20
483.680
 30
0.000000
  70
    32
  0
VERTEX
  8
2
  5
18E
 10
199.512
 20
483.612
 30
0.000000
  70
    32
  0
VERTEX
  8
2
  5
18F
 10
199.236
 20
483.533
 30
0.000000
  70
    32
  0
VERTEX
  8
2
  5
190
 10
198.963
 20
483.444
 30
0.000000
  70
    32
  0
VERTEX
  8
2
  5
191
 10
198.694
 20
483.345
 30
0.000000
  70
    32
  0
VERTEX
  8
2
  5
192
 10
198.428
 20
483.235
 30
0.000000
  70
    32
  0
VERTEX
  8
2
  5
193
 10
198.165
 20
483.115
 30
0.000000
  70
    32
  0
VERTEX
  8
2
  5
194
 10
197.907
 20
482.985
 30
0.000000
  70
    32
  0
VERTEX
  8
2
  5
195
 10
197.654
 20
482.845
 30
0.000000
  70
    32
  0
VERTEX
  8
2
  5
196
 10
197.405
 20
482.696
 30
0.000000
  70
    32
  0
VERTEX
  8
2
  5
197
 10
197.162
 20
482.537
 30
0.000000
  70
    32
  0
VERTEX
  8
2
  5
198
 10
196.924
 20
482.369
 30
0.000000
  70
    32
  0
VERTEX
  8
2
  5
199
 10
196.692
 20
482.192
 30
0.000000
  70
    32
  0
VERTEX
  8
2
  5
19A
 10
196.465
 20
482.007
 30
0.000000
  70
    32
  0
VERTEX
  8
2
  5
19B
 10
196.246
 20
481.812
 30
0.000000
  70
    32
  0
VERTEX
  8
2
  5
19C
 10
196.033
 20
481.610
 30
0.000000
  70
    32
  0
VERTEX
  8
2
  5
19D
 10
195.827
 20
481.399
 30
0.000000
  70
    32
  0
VERTEX
  8
2
  5
19E
 10
195.628
 20
481.181
 30
0.000000
  70
    32
  0
VERTEX
  8
2
  5
19F
 10
195.436
 20
480.955
 30
0.000000
  70
    32
  0
VERTEX
  8
2
  5
1A0
 10
195.253
 20
480.722
 30
0.000000
  70
    32
  0
VERTEX
  8
2
  5
1A1
 10
195.077
 20
480.482
 30
0.000000
  70
    32
  0
VERTEX
  8
2
  5
1A2
 10
194.909
 20
480.235
 30
0.000000
  70
    32
  0
VERTEX
  8
2
  5
1A3
 10
194.750
 20
479.982
 30
0.000000
  70
    32
  0
VERTEX
  8
2
  5
1A4
 10
194.599
 20
479.723
 30
0.000000
  70
    32
  0
VERTEX
  8
2
  5
1A5
 10
194.458
 20
479.459
 30
0.000000
  70
    32
  0
VERTEX
  8
2
  5
1A6
 10
194.325
 20
479.189
 30
0.000000
  70
    32
  0
VERTEX
  8
2
  5
1A7
 10
194.201
 20
478.915
 30
0.000000
  70
    32
  0
VERTEX
  8
2
  5
1A8
 10
194.087
 20
478.636
 30
0.000000
  70
    32
  0
VERTEX
  8
2
  5
1A9
 10
193.982
 20
478.352
 30
0.000000
  70
    32
  0
VERTEX
  8
2
  5
1AA
 10
193.886
 20
478.065
 30
0.000000
  70
    32
  0
VERTEX
  8
2
  5
1AB
 10
193.801
 20
477.775
 30
0.000000
  70
    32
  0
VERTEX
  8
2
  5
1AC
 10
193.725
 20
477.481
 30
0.000000
  70
    32
  0
VERTEX
  8
2
  5
1AD
 10
193.659
 20
477.184
 30
0.000000
  70
    32
  0
VERTEX
  8
2
  5
1AE
 10
193.603
 20
476.886
 30
0.000000
  70
    32
  0
VERTEX
  8
2
  5
1AF
 10
193.557
 20
476.585
 30
0.000000
  70
    32
  0
VERTEX
  8
2
  5
1B0
 10
193.521
 20
476.283
 30
0.000000
  70
    32
  0
VERTEX
  8
2
  5
1B1
 10
193.496
 20
475.979
 30
0.000000
  70
    32
  0
VERTEX
  8
2
  5
1B2
 10
193.480
 20
475.675
 30
0.000000
  70
    32
  0
VERTEX
  8
2
  5
1B3
 10
193.475
 20
475.370
 30
0.000000
  70
    32
  0
VERTEX
  8
2
  5
1B4
 10
193.480
 20
475.066
 30
0.000000
  70
    32
  0
VERTEX
  8
2
  5
1B5
 10
193.496
 20
474.761
 30
0.000000
  70
    32
  0
VERTEX
  8
2
  5
1B6
 10
193.521
 20
474.458
 30
0.000000
  70
    32
  0
VERTEX
  8
2
  5
1B7
 10
193.557
 20
474.155
 30
0.000000
  70
    32
  0
VERTEX
  8
2
  5
1B8
 10
193.603
 20
473.855
 30
0.000000
  70
    32
  0
VERTEX
  8
2
  5
1B9
 10
193.659
 20
473.556
 30
0.000000
  70
    32
  0
VERTEX
  8
2
  5
1BA
 10
193.725
 20
473.260
 30
0.000000
  70
    32
  0
VERTEX
  8
2
  5
1BB
 10
193.801
 20
472.966
 30
0.000000
  70
    32
  0
VERTEX
  8
2
  5
1BC
 10
193.886
 20
472.675
 30
0.000000
  70
    32
  0
VERTEX
  8
2
  5
1BD
 10
193.982
 20
472.388
 30
0.000000
  70
    32
  0
VERTEX
  8
2
  5
1BE
 10
194.087
 20
472.105
 30
0.000000
  70
    32
  0
VERTEX
  8
2
  5
1BF
 10
194.201
 20
471.826
 30
0.000000
  70
    32
  0
VERTEX
  8
2
  5
1C0
 10
194.325
 20
471.551
 30
0.000000
  70
    32
  0
VERTEX
  8
2
  5
1C1
 10
194.458
 20
471.281
 30
0.000000
  70
    32
  0
VERTEX
  8
2
  5
1C2
 10
194.599
 20
471.017
 30
0.000000
  70
    32
  0
VERTEX
  8
2
  5
1C3
 10
194.750
 20
470.758
 30
0.000000
  70
    32
  0
VERTEX
  8
2
  5
1C4
 10
194.909
 20
470.505
 30
0.000000
  70
    32
  0
VERTEX
  8
2
  5
1C5
 10
195.077
 20
470.259
 30
0.000000
  70
    32
  0
VERTEX
  8
2
  5
1C6
 10
195.253
 20
470.019
 30
0.000000
  70
    32
  0
VERTEX
  8
2
  5
1C7
 10
195.436
 20
469.786
 30
0.000000
  70
    32
  0
VERTEX
  8
2
  5
1C8
 10
195.628
 20
469.560
 30
0.000000
  70
    32
  0
VERTEX
  8
2
  5
1C9
 10
195.827
 20
469.341
 30
0.000000
  70
    32
  0
VERTEX
  8
2
  5
1CA
 10
196.033
 20
469.131
 30
0.000000
  70
    32
  0
VERTEX
  8
2
  5
1CB
 10
196.246
 20
468.928
 30
0.000000
  70
    32
  0
VERTEX
  8
2
  5
1CC
 10
196.465
 20
468.734
 30
0.000000
  70
    32
  0
VERTEX
  8
2
  5
1CD
 10
196.692
 20
468.548
 30
0.000000
  70
    32
  0
VERTEX
  8
2
  5
1CE
 10
196.924
 20
468.371
 30
0.000000
  70
    32
  0
VERTEX
  8
2
  5
1CF
 10
197.162
 20
468.203
 30
0.000000
  70
    32
  0
VERTEX
  8
2
  5
1D0
 10
197.405
 20
468.044
 30
0.000000
  70
    32
  0
VERTEX
  8
2
  5
1D1
 10
197.654
 20
467.895
 30
0.000000
  70
    32
  0
VERTEX
  8
2
  5
1D2
 10
197.907
 20
467.755
 30
0.000000
  70
    32
  0
VERTEX
  8
2
  5
1D3
 10
198.165
 20
467.625
 30
0.000000
  70
    32
  0
VERTEX
  8
2
  5
1D4
 10
198.428
 20
467.506
 30
0.000000
  70
    32
  0
VERTEX
  8
2
  5
1D5
 10
198.694
 20
467.396
 30
0.000000
  70
    32
  0
VERTEX
  8
2
  5
1D6
 10
198.963
 20
467.296
 30
0.000000
  70
    32
  0
VERTEX
  8
2
  5
1D7
 10
199.236
 20
467.207
 30
0.000000
  70
    32
  0
VERTEX
  8
2
  5
1D8
 10
199.512
 20
467.129
 30
0.000000
  70
    32
  0
VERTEX
  8
2
  5
1D9
 10
199.790
 20
467.061
 30
0.000000
  70
    32
  0
VERTEX
  8
2
  5
1DA
 10
200.070
 20
467.003
 30
0.000000
  70
    32
  0
VERTEX
  8
2
  5
1DB
 10
200.352
 20
466.957
 30
0.000000
  70
    32
  0
VERTEX
  8
2
  5
1DC
 10
200.635
 20
466.921
 30
0.000000
  70
    32
  0
VERTEX
  8
2
  5
1DD
 10
200.919
 20
466.896
 30
0.000000
  70
    32
  0
VERTEX
  8
2
  5
1DE
 10
201.204
 20
466.882
 30
0.000000
  70
    32
  0
VERTEX
  8
2
  5
1DF
 10
201.489
 20
466.879
 30
0.000000
  70
    32
  0
VERTEX
  8
2
  5
1E0
 10
201.775
 20
466.887
 30
0.000000
  70
    32
  0
VERTEX
  8
2
  5
1E1
 10
202.059
 20
466.906
 30
0.000000
  70
    32
  0
VERTEX
  8
2
  5
1E2
 10
202.343
 20
466.936
 30
0.000000
  70
    32
  0
VERTEX
  8
2
  5
1E3
 10
202.626
 20
466.977
 30
0.000000
  70
    32
  0
VERTEX
  8
2
  5
1E4
 10
202.907
 20
467.028
 30
0.000000
  70
    32
  0
VERTEX
  8
2
  5
1E5
 10
203.186
 20
467.090
 30
0.000000
  70
    32
  0
VERTEX
  8
2
  5
1E6
 10
203.463
 20
467.163
 30
0.000000
  70
    32
  0
VERTEX
  8
2
  5
1E7
 10
203.738
 20
467.247
 30
0.000000
  70
    32
  0
VERTEX
  8
2
  5
1E8
 10
204.009
 20
467.341
 30
0.000000
  70
    32
  0
VERTEX
  8
2
  5
1E9
 10
204.277
 20
467.445
 30
0.000000
  70
    32
  0
VERTEX
  8
2
  5
1EA
 10
204.541
 20
467.559
 30
0.000000
  70
    32
  0
VERTEX
  8
2
  5
1EB
 10
204.802
 20
467.684
 30
0.000000
  70
    32
  0
VERTEX
  8
2
  5
1EC
 10
205.058
 20
467.818
 30
0.000000
  70
    32
  0
VERTEX
  8
2
  5
1ED
 10
205.309
 20
467.962
 30
0.000000
  70
    32
  0
VERTEX
  8
2
  5
1EE
 10
205.555
 20
468.116
 30
0.000000
  70
    32
  0
VERTEX
  8
2
  5
1EF
 10
205.796
 20
468.279
 30
0.000000
  70
    32
  0
VERTEX
  8
2
  5
1F0
 10
206.032
 20
468.451
 30
0.000000
  70
    32
  0
VERTEX
  8
2
  5
1F1
 10
206.261
 20
468.632
 30
0.000000
  70
    32
  0
VERTEX
  8
2
  5
1F2
 10
206.484
 20
468.822
 30
0.000000
  70
    32
  0
VERTEX
  8
2
  5
1F3
 10
206.701
 20
469.020
 30
0.000000
  70
    32
  0
SEQEND
  8
2
  5
1F4
  0
POLYLINE
  5
35
  8
2
 10
201.42394518601139
 20
481.72019539533483
 30
0.0
 66
     1
 70
     8
  0
VERTEX
  8
2
  5
1F5
 10
201.424
 20
481.720
 30
0.000000
  70
    32
  0
VERTEX
  8
2
  5
1F6
 10
201.269
 20
481.718
 30
0.000000
  70
    32
  0
VERTEX
  8
2
  5
1F7
 10
201.114
 20
481.713
 30
0.000000
  70
    32
  0
VERTEX
  8
2
  5
1F8
 10
200.960
 20
481.703
 30
0.000000
  70
    32
  0
VERTEX
  8
2
  5
1F9
 10
200.806
 20
481.690
 30
0.000000
  70
    32
  0
VERTEX
  8
2
  5
1FA
 10
200.652
 20
481.672
 30
0.000000
  70
    32
  0
VERTEX
  8
2
  5
1FB
 10
200.498
 20
481.651
 30
0.000000
  70
    32
  0
VERTEX
  8
2
  5
1FC
 10
200.345
 20
481.627
 30
0.000000
  70
    32
  0
VERTEX
  8
2
  5
1FD
 10
200.193
 20
481.598
 30
0.000000
  70
    32
  0
VERTEX
  8
2
  5
1FE
 10
200.042
 20
481.566
 30
0.000000
  70
    32
  0
VERTEX
  8
2
  5
1FF
 10
199.891
 20
481.530
 30
0.000000
  70
    32
  0
VERTEX
  8
2
  5
200
 10
199.741
 20
481.490
 30
0.000000
  70
    32
  0
VERTEX
  8
2
  5
201
 10
199.592
 20
481.447
 30
0.000000
  70
    32
  0
VERTEX
  8
2
  5
202
 10
199.445
 20
481.400
 30
0.000000
  70
    32
  0
VERTEX
  8
2
  5
203
 10
199.298
 20
481.349
 30
0.000000
  70
    32
  0
VERTEX
  8
2
  5
204
 10
199.153
 20
481.295
 30
0.000000
  70
    32
  0
VERTEX
  8
2
  5
205
 10
199.009
 20
481.237
 30
0.000000
  70
    32
  0
VERTEX
  8
2
  5
206
 10
198.867
 20
481.175
 30
0.000000
  70
    32
  0
VERTEX
  8
2
  5
207
 10
198.726
 20
481.111
 30
0.000000
  70
    32
  0
VERTEX
  8
2
  5
208
 10
198.587
 20
481.042
 30
0.000000
  70
    32
  0
VERTEX
  8
2
  5
209
 10
198.450
 20
480.970
 30
0.000000
  70
    32
  0
VERTEX
  8
2
  5
20A
 10
198.314
 20
480.895
 30
0.000000
  70
    32
  0
VERTEX
  8
2
  5
20B
 10
198.180
 20
480.817
 30
0.000000
  70
    32
  0
VERTEX
  8
2
  5
20C
 10
198.048
 20
480.735
 30
0.000000
  70
    32
  0
VERTEX
  8
2
  5
20D
 10
197.919
 20
480.650
 30
0.000000
  70
    32
  0
VERTEX
  8
2
  5
20E
 10
197.791
 20
480.562
 30
0.000000
  70
    32
  0
VERTEX
  8
2
  5
20F
 10
197.666
 20
480.471
 30
0.000000
  70
    32
  0
VERTEX
  8
2
  5
210
 10
197.542
 20
480.376
 30
0.000000
  70
    32
  0
VERTEX
  8
2
  5
211
 10
197.421
 20
480.279
 30
0.000000
  70
    32
  0
VERTEX
  8
2
  5
212
 10
197.303
 20
480.178
 30
0.000000
  70
    32
  0
VERTEX
  8
2
  5
213
 10
197.187
 20
480.075
 30
0.000000
  70
    32
  0
VERTEX
  8
2
  5
214
 10
197.073
 20
479.969
 30
0.000000
  70
    32
  0
VERTEX
  8
2
  5
215
 10
196.963
 20
479.860
 30
0.000000
  70
    32
  0
VERTEX
  8
2
  5
216
 10
196.854
 20
479.749
 30
0.000000
  70
    32
  0
VERTEX
  8
2
  5
217
 10
196.749
 20
479.635
 30
0.000000
  70
    32
  0
VERTEX
  8
2
  5
218
 10
196.647
 20
479.518
 30
0.000000
  70
    32
  0
VERTEX
  8
2
  5
219
 10
196.547
 20
479.399
 30
0.000000
  70
    32
  0
VERTEX
  8
2
  5
21A
 10
196.450
 20
479.277
 30
0.000000
  70
    32
  0
VERTEX
  8
2
  5
21B
 10
196.356
 20
479.153
 30
0.000000
  70
    32
  0
VERTEX
  8
2
  5
21C
 10
196.266
 20
479.027
 30
0.000000
  70
    32
  0
VERTEX
  8
2
  5
21D
 10
196.178
 20
478.898
 30
0.000000
  70
    32
  0
VERTEX
  8
2
  5
21E
 10
196.094
 20
478.767
 30
0.000000
  70
    32
  0
VERTEX
  8
2
  5
21F
 10
196.012
 20
478.635
 30
0.000000
  70
    32
  0
VERTEX
  8
2
  5
220
 10
195.934
 20
478.500
 30
0.000000
  70
    32
  0
VERTEX
  8
2
  5
221
 10
195.860
 20
478.364
 30
0.000000
  70
    32
  0
VERTEX
  8
2
  5
222
 10
195.788
 20
478.225
 30
0.000000
  70
    32
  0
VERTEX
  8
2
  5
223
 10
195.720
 20
478.085
 30
0.000000
  70
    32
  0
VERTEX
  8
2
  5
224
 10
195.656
 20
477.943
 30
0.000000
  70
    32
  0
VERTEX
  8
2
  5
225
 10
195.595
 20
477.800
 30
0.000000
  70
    32
  0
VERTEX
  8
2
  5
226
 10
195.537
 20
477.656
 30
0.000000
  70
    32
  0
VERTEX
  8
2
  5
227
 10
195.483
 20
477.509
 30
0.000000
  70
    32
  0
VERTEX
  8
2
  5
228
 10
195.433
 20
477.362
 30
0.000000
  70
    32
  0
VERTEX
  8
2
  5
229
 10
195.386
 20
477.214
 30
0.000000
  70
    32
  0
VERTEX
  8
2
  5
22A
 10
195.343
 20
477.064
 30
0.000000
  70
    32
  0
VERTEX
  8
2
  5
22B
 10
195.304
 20
476.913
 30
0.000000
  70
    32
  0
VERTEX
  8
2
  5
22C
 10
195.268
 20
476.761
 30
0.000000
  70
    32
  0
VERTEX
  8
2
  5
22D
 10
195.236
 20
476.609
 30
0.000000
  70
    32
  0
VERTEX
  8
2
  5
22E
 10
195.208
 20
476.456
 30
0.000000
  70
    32
  0
VERTEX
  8
2
  5
22F
 10
195.183
 20
476.302
 30
0.000000
  70
    32
  0
VERTEX
  8
2
  5
230
 10
195.162
 20
476.148
 30
0.000000
  70
    32
  0
VERTEX
  8
2
  5
231
 10
195.145
 20
475.993
 30
0.000000
  70
    32
  0
VERTEX
  8
2
  5
232
 10
195.132
 20
475.837
 30
0.000000
  70
    32
  0
VERTEX
  8
2
  5
233
 10
195.122
 20
475.682
 30
0.000000
  70
    32
  0
VERTEX
  8
2
  5
234
 10
195.117
 20
475.526
 30
0.000000
  70
    32
  0
VERTEX
  8
2
  5
235
 10
195.115
 20
475.370
 30
0.000000
  70
    32
  0
VERTEX
  8
2
  5
236
 10
195.117
 20
475.214
 30
0.000000
  70
    32
  0
VERTEX
  8
2
  5
237
 10
195.122
 20
475.059
 30
0.000000
  70
    32
  0
VERTEX
  8
2
  5
238
 10
195.132
 20
474.903
 30
0.000000
  70
    32
  0
VERTEX
  8
2
  5
239
 10
195.145
 20
474.748
 30
0.000000
  70
    32
  0
VERTEX
  8
2
  5
23A
 10
195.162
 20
474.593
 30
0.000000
  70
    32
  0
VERTEX
  8
2
  5
23B
 10
195.183
 20
474.438
 30
0.000000
  70
    32
  0
VERTEX
  8
2
  5
23C
 10
195.208
 20
474.285
 30
0.000000
  70
    32
  0
VERTEX
  8
2
  5
23D
 10
195.236
 20
474.131
 30
0.000000
  70
    32
  0
VERTEX
  8
2
  5
23E
 10
195.268
 20
473.979
 30
0.000000
  70
    32
  0
VERTEX
  8
2
  5
23F
 10
195.304
 20
473.827
 30
0.000000
  70
    32
  0
VERTEX
  8
2
  5
240
 10
195.343
 20
473.677
 30
0.000000
  70
    32
  0
VERTEX
  8
2
  5
241
 10
195.386
 20
473.527
 30
0.000000
  70
    32
  0
VERTEX
  8
2
  5
242
 10
195.433
 20
473.378
 30
0.000000
  70
    32
  0
VERTEX
  8
2
  5
243
 10
195.483
 20
473.231
 30
0.000000
  70
    32
  0
VERTEX
  8
2
  5
244
 10
195.537
 20
473.085
 30
0.000000
  70
    32
  0
VERTEX
  8
2
  5
245
 10
195.595
 20
472.940
 30
0.000000
  70
    32
  0
VERTEX
  8
2
  5
246
 10
195.656
 20
472.797
 30
0.000000
  70
    32
  0
VERTEX
  8
2
  5
247
 10
195.720
 20
472.655
 30
0.000000
  70
    32
  0
VERTEX
  8
2
  5
248
 10
195.788
 20
472.515
 30
0.000000
  70
    32
  0
VERTEX
  8
2
  5
249
 10
195.860
 20
472.377
 30
0.000000
  70
    32
  0
VERTEX
  8
2
  5
24A
 10
195.934
 20
472.240
 30
0.000000
  70
    32
  0
VERTEX
  8
2
  5
24B
 10
196.012
 20
472.106
 30
0.000000
  70
    32
  0
VERTEX
  8
2
  5
24C
 10
196.094
 20
471.973
 30
0.000000
  70
    32
  0
VERTEX
  8
2
  5
24D
 10
196.178
 20
471.842
 30
0.000000
  70
    32
  0
VERTEX
  8
2
  5
24E
 10
196.266
 20
471.714
 30
0.000000
  70
    32
  0
VERTEX
  8
2
  5
24F
 10
196.356
 20
471.588
 30
0.000000
  70
    32
  0
VERTEX
  8
2
  5
250
 10
196.450
 20
471.463
 30
0.000000
  70
    32
  0
VERTEX
  8
2
  5
251
 10
196.547
 20
471.342
 30
0.000000
  70
    32
  0
VERTEX
  8
2
  5
252
 10
196.647
 20
471.223
 30
0.000000
  70
    32
  0
VERTEX
  8
2
  5
253
 10
196.749
 20
471.106
 30
0.000000
  70
    32
  0
VERTEX
  8
2
  5
254
 10
196.854
 20
470.992
 30
0.000000
  70
    32
  0
VERTEX
  8
2
  5
255
 10
196.963
 20
470.880
 30
0.000000
  70
    32
  0
VERTEX
  8
2
  5
256
 10
197.073
 20
470.771
 30
0.000000
  70
    32
  0
VERTEX
  8
2
  5
257
 10
197.187
 20
470.665
 30
0.000000
  70
    32
  0
VERTEX
  8
2
  5
258
 10
197.303
 20
470.562
 30
0.000000
  70
    32
  0
VERTEX
  8
2
  5
259
 10
197.421
 20
470.462
 30
0.000000
  70
    32
  0
VERTEX
  8
2
  5
25A
 10
197.542
 20
470.364
 30
0.000000
  70
    32
  0
VERTEX
  8
2
  5
25B
 10
197.666
 20
470.270
 30
0.000000
  70
    32
  0
VERTEX
  8
2
  5
25C
 10
197.791
 20
470.179
 30
0.000000
  70
    32
  0
VERTEX
  8
2
  5
25D
 10
197.919
 20
470.090
 30
0.000000
  70
    32
  0
VERTEX
  8
2
  5
25E
 10
198.048
 20
470.005
 30
0.000000
  70
    32
  0
VERTEX
  8
2
  5
25F
 10
198.180
 20
469.924
 30
0.000000
  70
    32
  0
VERTEX
  8
2
  5
260
 10
198.314
 20
469.845
 30
0.000000
  70
    32
  0
VERTEX
  8
2
  5
261
 10
198.450
 20
469.770
 30
0.000000
  70
    32
  0
VERTEX
  8
2
  5
262
 10
198.587
 20
469.698
 30
0.000000
  70
    32
  0
VERTEX
  8
2
  5
263
 10
198.726
 20
469.630
 30
0.000000
  70
    32
  0
VERTEX
  8
2
  5
264
 10
198.867
 20
469.565
 30
0.000000
  70
    32
  0
VERTEX
  8
2
  5
265
 10
199.009
 20
469.504
 30
0.000000
  70
    32
  0
VERTEX
  8
2
  5
266
 10
199.153
 20
469.446
 30
0.000000
  70
    32
  0
VERTEX
  8
2
  5
267
 10
199.298
 20
469.391
 30
0.000000
  70
    32
  0
VERTEX
  8
2
  5
268
 10
199.445
 20
469.341
 30
0.000000
  70
    32
  0
VERTEX
  8
2
  5
269
 10
199.592
 20
469.294
 30
0.000000
  70
    32
  0
VERTEX
  8
2
  5
26A
 10
199.741
 20
469.250
 30
0.000000
  70
    32
  0
VERTEX
  8
2
  5
26B
 10
199.891
 20
469.210
 30
0.000000
  70
    32
  0
VERTEX
  8
2
  5
26C
 10
200.042
 20
469.174
 30
0.000000
  70
    32
  0
VERTEX
  8
2
  5
26D
 10
200.193
 20
469.142
 30
0.000000
  70
    32
  0
VERTEX
  8
2
  5
26E
 10
200.345
 20
469.114
 30
0.000000
  70
    32
  0
VERTEX
  8
2
  5
26F
 10
200.498
 20
469.089
 30
0.000000
  70
    32
  0
VERTEX
  8
2
  5
270
 10
200.652
 20
469.068
 30
0.000000
  70
    32
  0
VERTEX
  8
2
  5
271
 10
200.806
 20
469.051
 30
0.000000
  70
    32
  0
VERTEX
  8
2
  5
272
 10
200.960
 20
469.037
 30
0.000000
  70
    32
  0
VERTEX
  8
2
  5
273
 10
201.114
 20
469.028
 30
0.000000
  70
    32
  0
VERTEX
  8
2
  5
274
 10
201.269
 20
469.022
 30
0.000000
  70
    32
  0
VERTEX
  8
2
  5
275
 10
201.424
 20
469.020
 30
0.000000
  70
    32
  0
SEQEND
  8
2
  5
276
  0
LINE
  5
36
  8
2
 10
385.3228131865319
 20
469.02019539533472
 30
0.0
 11
201.42263690354781
 21
469.02019539533512
 31
0.0
  0
LINE
  5
37
  8
2
 10
201.4224838856619
 20
481.72019539533488
 30
0.0
 11
385.3228131865319
 21
481.72019539533483
 31
0.0
  0
ARC
  5
38
  8
2
 10
385.32281318653202
 20
475.3701953953348
 30
0.0
 40
8.9359681834476987
 50
225.2846744591935
 51
134.7153255408127
  0
ARC
  5
39
  8
2
 10
385.32281318653202
 20
475.3701953953348
 30
0.0
 40
19.092434000000019
 50
199.42620430898381
 51
160.5737956910169
  0
ARC
  5
3A
  8
2
 10
337.8228131865319
 20
452.09841040812449
 30
0.0
 40
30.0
 50
0.5190781907526081
 51
26.10172673005561
  0
ARC
  5
3B
  8
2
 10
432.82281318653207
 20
452.09841040812449
 30
0.0
 40
30.0
 50
153.8982732699443
 51
179.48092180924411
  0
ARC
  5
3C
  8
2
 10
385.32281318653202
 20
475.3701953953348
 30
0.0
 40
6.3786573818349828
 50
264.56682144370137
 51
95.433178556291693
  0
ARC
  5
3D
  8
2
 10
385.32281318653202
 20
475.3701953953348
 30
0.0
 40
22.894479640988632
 50
196.10267072310779
 51
206.10172673005559
  0
ARC
  5
3E
  8
0
 10
385.3228131865319
 20
475.37019539533469
 30
0.0
 40
23.0
 50
196.02680014356281
 51
163.97319985643691
  0
ARC
  5
3F
  8
0
 10
385.32281318653202
 20
475.3701953953348
 30
0.0
 40
20.0
 50
198.51180266809939
 51
161.48819733190069
  0
ARC
  5
40
  8
0
 10
385.3228131865319
 20
475.37019539533469
 30
0.0
 40
11.393453000000189
 50
213.8718757871022
 51
146.12812421289769
  0
ARC
  5
41
  8
0
 10
385.3228131865319
 20
475.37019539533469
 30
0.0
 40
11.74842800000016
 50
212.717535651113
 51
147.282464348887
  0
ARC
  5
42
  8
0
 10
385.3228131865319
 20
475.37019539533469
 30
0.0
 40
8.5904192202779086
 50
227.66293715480481
 51
132.33706284519511
  0
ARC
  5
43
  8
0
 10
391.20040348607921
 20
457.22774254140529
 30
0.0
 40
26.493631395691772
 50
269.49982953538341
 51
291.5345933332016
  0
ARC
  5
44
  8
0
 10
399.7133014865264
 20
435.51253030735012
 30
0.0
 40
3.1698857107477432
 50
292.4778715805291
 51
348.91477317291867
  0
ARC
  5
45
  8
0
 10
382.9806592512266
 20
705.11867989232803
 30
0.0
 40
274.49982369987549
 50
261.51871710712589
 51
271.667651785354
  0
ARC
  5
46
  8
0
 10
342.82281318653179
 20
436.60287173768671
 30
0.0
 40
3.0
 50
180.0
 51
263.73998723329271
  0
ARC
  5
47
  8
0
 10
384.12729587603911
 20
463.72662361996629
 30
0.0
 40
35.384555148069623
 50
280.77393444535579
 51
298.34145415241568
  0
ARC
  5
48
  8
0
 10
400.6764412466402
 20
748.53587637041051
 30
0.0
 40
320.2444851481286
 50
259.5326003765137
 51
266.28089032166622
  0
LINE
  5
49
  8
0
 10
402.82404432978188
 20
452.37019539533583
 30
0.0
 11
367.82404432978188
 21
452.37019539533583
 31
0.0
  0
LINE
  5
4A
  8
0
 10
400.49515055089392
 20
448.87019539533571
 30
0.0
 11
400.49515055089392
 21
448.36289733133162
 31
0.0
  0
LINE
  5
4B
  8
0
 10
402.82404432978188
 20
447.86289733133168
 30
0.0
 11
402.824044329782
 21
434.9030597319026
 31
0.0
  0
ARC
  5
4C
  8
0
 10
340.82281318653179
 20
447.36385585496839
 30
0.0
 40
1.0
 50
92.508844474889116
 51
180.0
  0
ARC
  5
4D
  8
2
 10
385.32281318653168
 20
437.37019539533469
 30
0.0
 40
10.0
 50
237.1864208047277
 51
302.81357919527221
  0
LINE
  5
4E
  8
4
 10
388.86379679454097
 20
446.39486570605152
 30
0.0
 11
388.86379679454097
 21
435.6207598438923
 31
0.0
  0
LINE
  5
51
  8
4
 10
390.86379679454092
 20
448.39486570605152
 30
0.0
 11
391.112968621368
 21
448.39486570605152
 31
0.0
  0
ARC
  5
52
  8
4
 10
397.16105280832028
 20
440.80074893143291
 30
0.0
 40
9.0384033115752871
 50
229.69422684560291
 51
294.6116198350511
  0
ARC
  5
53
  8
4
 10
390.86379679454097
 20
435.6207598438923
 30
0.0
 40
2.0
 50
180.0
 51
246.05247533653039
  0
ARC
  5
54
  8
4
 10
390.86379679454092
 20
446.39486570605152
 30
0.0
 40
2.0
 50
90.0
 51
104.52652460853579
  0
LINE
  5
55
  8
4
 10
391.61296862136811
 20
447.36289733133168
 30
0.0
 11
391.61296862136811
 21
434.6207598438923
 31
0.0
  0
ARC
  5
56
  8
4
 10
390.612968621368
 20
447.36289733133168
 30
0.0
 40
1.0
 50
0.0
 51
104.52652460853621
  0
ARC
  5
57
  8
4
 10
390.61296862136811
 20
434.6207598438923
 30
0.0
 40
1.0
 50
235.8769968904887
 51
0.0
  0
LINE
  5
58
  8
2
 10
339.82281318653179
 20
447.36385585496839
 30
0.0
 11
339.82281318653179
 21
436.60287173768671
 31
0.0
  0
ARC
  5
59
  8
4
 10
390.86379679454092
 20
446.39486570605152
 30
0.0
 40
2.0
 50
104.52652460853579
 51
179.9999999999996
  0
LINE
  5
5A
  8
0
 10
402.52404432978187
 20
448.87019539533571
 30
0.0
 11
368.1240443297819
 21
448.87019539533571
 31
0.0
  0
LINE
  5
5B
  8
0
 10
367.82383327670561
 20
449.17019532109668
 30
0.0
 11
367.82158204328209
 21
452.37019539533412
 31
0.0
  0
LINE
  5
5C
  8
0
 10
402.82404432978188
 20
449.17019539533578
 30
0.0
 11
402.82404432978188
 21
452.37019539533571
 31
0.0
  0
LINE
  5
5D
  8
0
 10
390.74188729406723
 20
428.96581345392832
 30
0.0
 11
379.90373907899641
 21
428.96581345392832
 31
0.0
  0
LINE
  5
5E
  8
0
 10
367.82383327670561
 20
449.17019532109668
 30
0.0
 11
368.1240443297819
 21
448.87019539533571
 31
0.0
  0
LINE
  5
5F
  8
0
 10
402.52404432978187
 20
448.87019539533571
 30
0.0
 11
402.82404432978188
 21
449.17019539533578
 31
0.0
  0
LINE
  5
60
  8
0
 10
402.32404432978188
 20
448.36289733133168
 30
0.0
 11
340.86658679166197
 21
448.36289733133162
 31
0.0
  0
LINE
  5
61
  8
0
 10
370.15047582216982
 20
448.87019539533571
 30
0.0
 11
370.15047582216982
 21
448.36289733133162
 31
0.0
  0
ARC
  5
62
  8
0
 10
402.32404432978188
 20
447.86289733133168
 30
0.0
 40
0.5
 50
0.0000000000007124
 51
90.0
  0
POLYLINE
  8
4
  5
277
  66
     1
 10
0.000000
 20
0.000000
 30
0.000000
  70
     8
  0
VERTEX
  8
4
  5
278
 10
388.864
 20
446.395
 30
0.000000
  70
    32
  0
VERTEX
  8
4
  5
279
 10
388.851
 20
446.420
 30
0.000000
  70
    32
  0
VERTEX
  8
4
  5
27A
 10
388.838
 20
446.446
 30
0.000000
  70
    32
  0
VERTEX
  8
4
  5
27B
 10
388.825
 20
446.472
 30
0.000000
  70
    32
  0
VERTEX
  8
4
  5
27C
 10
388.811
 20
446.497
 30
0.000000
  70
    32
  0
VERTEX
  8
4
  5
27D
 10
388.798
 20
446.523
 30
0.000000
  70
    32
  0
VERTEX
  8
4
  5
27E
 10
388.785
 20
446.548
 30
0.000000
  70
    32
  0
VERTEX
  8
4
  5
27F
 10
388.772
 20
446.574
 30
0.000000
  70
    32
  0
VERTEX
  8
4
  5
280
 10
388.759
 20
446.599
 30
0.000000
  70
    32
  0
VERTEX
  8
4
  5
281
 10
388.746
 20
446.625
 30
0.000000
  70
    32
  0
VERTEX
  8
4
  5
282
 10
388.732
 20
446.650
 30
0.000000
  70
    32
  0
VERTEX
  8
4
  5
283
 10
388.719
 20
446.675
 30
0.000000
  70
    32
  0
VERTEX
  8
4
  5
284
 10
388.706
 20
446.701
 30
0.000000
  70
    32
  0
VERTEX
  8
4
  5
285
 10
388.692
 20
446.726
 30
0.000000
  70
    32
  0
VERTEX
  8
4
  5
286
 10
388.679
 20
446.751
 30
0.000000
  70
    32
  0
VERTEX
  8
4
  5
287
 10
388.665
 20
446.776
 30
0.000000
  70
    32
  0
VERTEX
  8
4
  5
288
 10
388.652
 20
446.801
 30
0.000000
  70
    32
  0
VERTEX
  8
4
  5
289
 10
388.638
 20
446.826
 30
0.000000
  70
    32
  0
VERTEX
  8
4
  5
28A
 10
388.625
 20
446.851
 30
0.000000
  70
    32
  0
VERTEX
  8
4
  5
28B
 10
388.611
 20
446.875
 30
0.000000
  70
    32
  0
VERTEX
  8
4
  5
28C
 10
388.597
 20
446.900
 30
0.000000
  70
    32
  0
VERTEX
  8
4
  5
28D
 10
388.583
 20
446.924
 30
0.000000
  70
    32
  0
VERTEX
  8
4
  5
28E
 10
388.569
 20
446.949
 30
0.000000
  70
    32
  0
VERTEX
  8
4
  5
28F
 10
388.555
 20
446.973
 30
0.000000
  70
    32
  0
VERTEX
  8
4
  5
290
 10
388.541
 20
446.997
 30
0.000000
  70
    32
  0
VERTEX
  8
4
  5
291
 10
388.527
 20
447.021
 30
0.000000
  70
    32
  0
VERTEX
  8
4
  5
292
 10
388.513
 20
447.045
 30
0.000000
  70
    32
  0
VERTEX
  8
4
  5
293
 10
388.499
 20
447.069
 30
0.000000
  70
    32
  0
VERTEX
  8
4
  5
294
 10
388.484
 20
447.093
 30
0.000000
  70
    32
  0
VERTEX
  8
4
  5
295
 10
388.470
 20
447.116
 30
0.000000
  70
    32
  0
VERTEX
  8
4
  5
296
 10
388.455
 20
447.139
 30
0.000000
  70
    32
  0
VERTEX
  8
4
  5
297
 10
388.440
 20
447.163
 30
0.000000
  70
    32
  0
VERTEX
  8
4
  5
298
 10
388.425
 20
447.186
 30
0.000000
  70
    32
  0
VERTEX
  8
4
  5
299
 10
388.410
 20
447.209
 30
0.000000
  70
    32
  0
VERTEX
  8
4
  5
29A
 10
388.395
 20
447.231
 30
0.000000
  70
    32
  0
VERTEX
  8
4
  5
29B
 10
388.380
 20
447.254
 30
0.000000
  70
    32
  0
VERTEX
  8
4
  5
29C
 10
388.365
 20
447.276
 30
0.000000
  70
    32
  0
VERTEX
  8
4
  5
29D
 10
388.349
 20
447.298
 30
0.000000
  70
    32
  0
VERTEX
  8
4
  5
29E
 10
388.333
 20
447.320
 30
0.000000
  70
    32
  0
VERTEX
  8
4
  5
29F
 10
388.318
 20
447.342
 30
0.000000
  70
    32
  0
VERTEX
  8
4
  5
2A0
 10
388.302
 20
447.364
 30
0.000000
  70
    32
  0
VERTEX
  8
4
  5
2A1
 10
388.286
 20
447.385
 30
0.000000
  70
    32
  0
VERTEX
  8
4
  5
2A2
 10
388.270
 20
447.406
 30
0.000000
  70
    32
  0
VERTEX
  8
4
  5
2A3
 10
388.253
 20
447.427
 30
0.000000
  70
    32
  0
VERTEX
  8
4
  5
2A4
 10
388.237
 20
447.448
 30
0.000000
  70
    32
  0
VERTEX
  8
4
  5
2A5
 10
388.220
 20
447.468
 30
0.000000
  70
    32
  0
VERTEX
  8
4
  5
2A6
 10
388.203
 20
447.488
 30
0.000000
  70
    32
  0
VERTEX
  8
4
  5
2A7
 10
388.186
 20
447.508
 30
0.000000
  70
    32
  0
VERTEX
  8
4
  5
2A8
 10
388.169
 20
447.528
 30
0.000000
  70
    32
  0
VERTEX
  8
4
  5
2A9
 10
388.152
 20
447.548
 30
0.000000
  70
    32
  0
VERTEX
  8
4
  5
2AA
 10
388.134
 20
447.567
 30
0.000000
  70
    32
  0
VERTEX
  8
4
  5
2AB
 10
388.117
 20
447.586
 30
0.000000
  70
    32
  0
VERTEX
  8
4
  5
2AC
 10
388.099
 20
447.604
 30
0.000000
  70
    32
  0
VERTEX
  8
4
  5
2AD
 10
388.081
 20
447.623
 30
0.000000
  70
    32
  0
VERTEX
  8
4
  5
2AE
 10
388.063
 20
447.641
 30
0.000000
  70
    32
  0
VERTEX
  8
4
  5
2AF
 10
388.044
 20
447.659
 30
0.000000
  70
    32
  0
VERTEX
  8
4
  5
2B0
 10
388.025
 20
447.677
 30
0.000000
  70
    32
  0
VERTEX
  8
4
  5
2B1
 10
388.007
 20
447.694
 30
0.000000
  70
    32
  0
VERTEX
  8
4
  5
2B2
 10
387.988
 20
447.711
 30
0.000000
  70
    32
  0
VERTEX
  8
4
  5
2B3
 10
387.968
 20
447.728
 30
0.000000
  70
    32
  0
VERTEX
  8
4
  5
2B4
 10
387.949
 20
447.744
 30
0.000000
  70
    32
  0
VERTEX
  8
4
  5
2B5
 10
387.929
 20
447.760
 30
0.000000
  70
    32
  0
VERTEX
  8
4
  5
2B6
 10
387.909
 20
447.776
 30
0.000000
  70
    32
  0
VERTEX
  8
4
  5
2B7
 10
387.889
 20
447.792
 30
0.000000
  70
    32
  0
VERTEX
  8
4
  5
2B8
 10
387.869
 20
447.807
 30
0.000000
  70
    32
  0
VERTEX
  8
4
  5
2B9
 10
387.848
 20
447.822
 30
0.000000
  70
    32
  0
VERTEX
  8
4
  5
2BA
 10
387.828
 20
447.836
 30
0.000000
  70
    32
  0
VERTEX
  8
4
  5
2BB
 10
387.807
 20
447.851
 30
0.000000
  70
    32
  0
VERTEX
  8
4
  5
2BC
 10
387.786
 20
447.865
 30
0.000000
  70
    32
  0
VERTEX
  8
4
  5
2BD
 10
387.764
 20
447.879
 30
0.000000
  70
    32
  0
VERTEX
  8
4
  5
2BE
 10
387.743
 20
447.892
 30
0.000000
  70
    32
  0
VERTEX
  8
4
  5
2BF
 10
387.721
 20
447.905
 30
0.000000
  70
    32
  0
VERTEX
  8
4
  5
2C0
 10
387.699
 20
447.918
 30
0.000000
  70
    32
  0
VERTEX
  8
4
  5
2C1
 10
387.677
 20
447.931
 30
0.000000
  70
    32
  0
VERTEX
  8
4
  5
2C2
 10
387.655
 20
447.944
 30
0.000000
  70
    32
  0
VERTEX
  8
4
  5
2C3
 10
387.633
 20
447.956
 30
0.000000
  70
    32
  0
VERTEX
  8
4
  5
2C4
 10
387.610
 20
447.968
 30
0.000000
  70
    32
  0
VERTEX
  8
4
  5
2C5
 10
387.587
 20
447.979
 30
0.000000
  70
    32
  0
VERTEX
  8
4
  5
2C6
 10
387.565
 20
447.991
 30
0.000000
  70
    32
  0
VERTEX
  8
4
  5
2C7
 10
387.541
 20
448.002
 30
0.000000
  70
    32
  0
VERTEX
  8
4
  5
2C8
 10
387.518
 20
448.013
 30
0.000000
  70
    32
  0
VERTEX
  8
4
  5
2C9
 10
387.495
 20
448.024
 30
0.000000
  70
    32
  0
VERTEX
  8
4
  5
2CA
 10
387.471
 20
448.034
 30
0.000000
  70
    32
  0
VERTEX
  8
4
  5
2CB
 10
387.447
 20
448.044
 30
0.000000
  70
    32
  0
VERTEX
  8
4
  5
2CC
 10
387.423
 20
448.054
 30
0.000000
  70
    32
  0
VERTEX
  8
4
  5
2CD
 10
387.399
 20
448.064
 30
0.000000
  70
    32
  0
VERTEX
  8
4
  5
2CE
 10
387.375
 20
448.074
 30
0.000000
  70
    32
  0
VERTEX
  8
4
  5
2CF
 10
387.351
 20
448.083
 30
0.000000
  70
    32
  0
VERTEX
  8
4
  5
2D0
 10
387.326
 20
448.092
 30
0.000000
  70
    32
  0
VERTEX
  8
4
  5
2D1
 10
387.301
 20
448.101
 30
0.000000
  70
    32
  0
VERTEX
  8
4
  5
2D2
 10
387.277
 20
448.109
 30
0.000000
  70
    32
  0
VERTEX
  8
4
  5
2D3
 10
387.252
 20
448.118
 30
0.000000
  70
    32
  0
VERTEX
  8
4
  5
2D4
 10
387.226
 20
448.126
 30
0.000000
  70
    32
  0
VERTEX
  8
4
  5
2D5
 10
387.201
 20
448.134
 30
0.000000
  70
    32
  0
VERTEX
  8
4
  5
2D6
 10
387.176
 20
448.142
 30
0.000000
  70
    32
  0
VERTEX
  8
4
  5
2D7
 10
387.150
 20
448.150
 30
0.000000
  70
    32
  0
VERTEX
  8
4
  5
2D8
 10
387.124
 20
448.157
 30
0.000000
  70
    32
  0
VERTEX
  8
4
  5
2D9
 10
387.099
 20
448.164
 30
0.000000
  70
    32
  0
VERTEX
  8
4
  5
2DA
 10
387.073
 20
448.171
 30
0.000000
  70
    32
  0
VERTEX
  8
4
  5
2DB
 10
387.046
 20
448.178
 30
0.000000
  70
    32
  0
VERTEX
  8
4
  5
2DC
 10
387.020
 20
448.185
 30
0.000000
  70
    32
  0
VERTEX
  8
4
  5
2DD
 10
386.994
 20
448.191
 30
0.000000
  70
    32
  0
VERTEX
  8
4
  5
2DE
 10
386.967
 20
448.198
 30
0.000000
  70
    32
  0
VERTEX
  8
4
  5
2DF
 10
386.941
 20
448.204
 30
0.000000
  70
    32
  0
VERTEX
  8
4
  5
2E0
 10
386.914
 20
448.210
 30
0.000000
  70
    32
  0
VERTEX
  8
4
  5
2E1
 10
386.887
 20
448.215
 30
0.000000
  70
    32
  0
VERTEX
  8
4
  5
2E2
 10
386.860
 20
448.221
 30
0.000000
  70
    32
  0
VERTEX
  8
4
  5
2E3
 10
386.833
 20
448.227
 30
0.000000
  70
    32
  0
VERTEX
  8
4
  5
2E4
 10
386.806
 20
448.232
 30
0.000000
  70
    32
  0
VERTEX
  8
4
  5
2E5
 10
386.779
 20
448.237
 30
0.000000
  70
    32
  0
VERTEX
  8
4
  5
2E6
 10
386.751
 20
448.242
 30
0.000000
  70
    32
  0
VERTEX
  8
4
  5
2E7
 10
386.724
 20
448.247
 30
0.000000
  70
    32
  0
VERTEX
  8
4
  5
2E8
 10
386.696
 20
448.252
 30
0.000000
  70
    32
  0
VERTEX
  8
4
  5
2E9
 10
386.668
 20
448.256
 30
0.000000
  70
    32
  0
VERTEX
  8
4
  5
2EA
 10
386.641
 20
448.261
 30
0.000000
  70
    32
  0
VERTEX
  8
4
  5
2EB
 10
386.613
 20
448.265
 30
0.000000
  70
    32
  0
VERTEX
  8
4
  5
2EC
 10
386.585
 20
448.269
 30
0.000000
  70
    32
  0
VERTEX
  8
4
  5
2ED
 10
386.557
 20
448.273
 30
0.000000
  70
    32
  0
VERTEX
  8
4
  5
2EE
 10
386.529
 20
448.277
 30
0.000000
  70
    32
  0
VERTEX
  8
4
  5
2EF
 10
386.500
 20
448.281
 30
0.000000
  70
    32
  0
VERTEX
  8
4
  5
2F0
 10
386.472
 20
448.284
 30
0.000000
  70
    32
  0
VERTEX
  8
4
  5
2F1
 10
386.444
 20
448.288
 30
0.000000
  70
    32
  0
VERTEX
  8
4
  5
2F2
 10
386.415
 20
448.291
 30
0.000000
  70
    32
  0
VERTEX
  8
4
  5
2F3
 10
386.386
 20
448.294
 30
0.000000
  70
    32
  0
VERTEX
  8
4
  5
2F4
 10
386.358
 20
448.298
 30
0.000000
  70
    32
  0
VERTEX
  8
4
  5
2F5
 10
386.329
 20
448.301
 30
0.000000
  70
    32
  0
VERTEX
  8
4
  5
2F6
 10
386.300
 20
448.304
 30
0.000000
  70
    32
  0
VERTEX
  8
4
  5
2F7
 10
386.271
 20
448.306
 30
0.000000
  70
    32
  0
VERTEX
  8
4
  5
2F8
 10
386.242
 20
448.309
 30
0.000000
  70
    32
  0
VERTEX
  8
4
  5
2F9
 10
386.213
 20
448.312
 30
0.000000
  70
    32
  0
VERTEX
  8
4
  5
2FA
 10
386.184
 20
448.314
 30
0.000000
  70
    32
  0
VERTEX
  8
4
  5
2FB
 10
386.155
 20
448.317
 30
0.000000
  70
    32
  0
VERTEX
  8
4
  5
2FC
 10
386.126
 20
448.319
 30
0.000000
  70
    32
  0
VERTEX
  8
4
  5
2FD
 10
386.097
 20
448.322
 30
0.000000
  70
    32
  0
VERTEX
  8
4
  5
2FE
 10
386.067
 20
448.324
 30
0.000000
  70
    32
  0
VERTEX
  8
4
  5
2FF
 10
386.038
 20
448.326
 30
0.000000
  70
    32
  0
VERTEX
  8
4
  5
300
 10
386.009
 20
448.328
 30
0.000000
  70
    32
  0
VERTEX
  8
4
  5
301
 10
385.979
 20
448.330
 30
0.000000
  70
    32
  0
VERTEX
  8
4
  5
302
 10
385.950
 20
448.332
 30
0.000000
  70
    32
  0
VERTEX
  8
4
  5
303
 10
385.920
 20
448.334
 30
0.000000
  70
    32
  0
VERTEX
  8
4
  5
304
 10
385.890
 20
448.336
 30
0.000000
  70
    32
  0
VERTEX
  8
4
  5
305
 10
385.861
 20
448.338
 30
0.000000
  70
    32
  0
VERTEX
  8
4
  5
306
 10
385.831
 20
448.339
 30
0.000000
  70
    32
  0
VERTEX
  8
4
  5
307
 10
385.801
 20
448.341
 30
0.000000
  70
    32
  0
VERTEX
  8
4
  5
308
 10
385.772
 20
448.343
 30
0.000000
  70
    32
  0
VERTEX
  8
4
  5
309
 10
385.742
 20
448.344
 30
0.000000
  70
    32
  0
VERTEX
  8
4
  5
30A
 10
385.712
 20
448.346
 30
0.000000
  70
    32
  0
VERTEX
  8
4
  5
30B
 10
385.682
 20
448.347
 30
0.000000
  70
    32
  0
VERTEX
  8
4
  5
30C
 10
385.652
 20
448.349
 30
0.000000
  70
    32
  0
VERTEX
  8
4
  5
30D
 10
385.623
 20
448.350
 30
0.000000
  70
    32
  0
VERTEX
  8
4
  5
30E
 10
385.593
 20
448.351
 30
0.000000
  70
    32
  0
VERTEX
  8
4
  5
30F
 10
385.563
 20
448.353
 30
0.000000
  70
    32
  0
VERTEX
  8
4
  5
310
 10
385.533
 20
448.354
 30
0.000000
  70
    32
  0
VERTEX
  8
4
  5
311
 10
385.503
 20
448.355
 30
0.000000
  70
    32
  0
VERTEX
  8
4
  5
312
 10
385.473
 20
448.357
 30
0.000000
  70
    32
  0
VERTEX
  8
4
  5
313
 10
385.443
 20
448.358
 30
0.000000
  70
    32
  0
VERTEX
  8
4
  5
314
 10
385.413
 20
448.359
 30
0.000000
  70
    32
  0
VERTEX
  8
4
  5
315
 10
385.383
 20
448.360
 30
0.000000
  70
    32
  0
VERTEX
  8
4
  5
316
 10
385.353
 20
448.362
 30
0.000000
  70
    32
  0
VERTEX
  8
4
  5
317
 10
385.323
 20
448.363
 30
0.000000
  70
    32
  0
SEQEND
  8
4
  5
318
  0
POLYLINE
  8
4
  5
319
  66
     1
 10
0.000000
 20
0.000000
 30
0.000000
  70
     8
  0
VERTEX
  8
4
  5
31A
 10
388.902
 20
435.233
 30
0.000000
  70
    32
  0
VERTEX
  8
4
  5
31B
 10
388.904
 20
435.191
 30
0.000000
  70
    32
  0
VERTEX
  8
4
  5
31C
 10
388.906
 20
435.149
 30
0.000000
  70
    32
  0
VERTEX
  8
4
  5
31D
 10
388.909
 20
435.107
 30
0.000000
  70
    32
  0
VERTEX
  8
4
  5
31E
 10
388.911
 20
435.065
 30
0.000000
  70
    32
  0
VERTEX
  8
4
  5
31F
 10
388.913
 20
435.023
 30
0.000000
  70
    32
  0
VERTEX
  8
4
  5
320
 10
388.916
 20
434.981
 30
0.000000
  70
    32
  0
VERTEX
  8
4
  5
321
 10
388.918
 20
434.939
 30
0.000000
  70
    32
  0
VERTEX
  8
4
  5
322
 10
388.920
 20
434.898
 30
0.000000
  70
    32
  0
VERTEX
  8
4
  5
323
 10
388.922
 20
434.856
 30
0.000000
  70
    32
  0
VERTEX
  8
4
  5
324
 10
388.924
 20
434.814
 30
0.000000
  70
    32
  0
VERTEX
  8
4
  5
325
 10
388.926
 20
434.772
 30
0.000000
  70
    32
  0
VERTEX
  8
4
  5
326
 10
388.927
 20
434.731
 30
0.000000
  70
    32
  0
VERTEX
  8
4
  5
327
 10
388.929
 20
434.689
 30
0.000000
  70
    32
  0
VERTEX
  8
4
  5
328
 10
388.930
 20
434.647
 30
0.000000
  70
    32
  0
VERTEX
  8
4
  5
329
 10
388.931
 20
434.606
 30
0.000000
  70
    32
  0
VERTEX
  8
4
  5
32A
 10
388.932
 20
434.565
 30
0.000000
  70
    32
  0
VERTEX
  8
4
  5
32B
 10
388.933
 20
434.523
 30
0.000000
  70
    32
  0
VERTEX
  8
4
  5
32C
 10
388.934
 20
434.482
 30
0.000000
  70
    32
  0
VERTEX
  8
4
  5
32D
 10
388.934
 20
434.441
 30
0.000000
  70
    32
  0
VERTEX
  8
4
  5
32E
 10
388.934
 20
434.400
 30
0.000000
  70
    32
  0
VERTEX
  8
4
  5
32F
 10
388.934
 20
434.360
 30
0.000000
  70
    32
  0
VERTEX
  8
4
  5
330
 10
388.934
 20
434.319
 30
0.000000
  70
    32
  0
VERTEX
  8
4
  5
331
 10
388.934
 20
434.278
 30
0.000000
  70
    32
  0
VERTEX
  8
4
  5
332
 10
388.933
 20
434.238
 30
0.000000
  70
    32
  0
VERTEX
  8
4
  5
333
 10
388.932
 20
434.198
 30
0.000000
  70
    32
  0
VERTEX
  8
4
  5
334
 10
388.930
 20
434.158
 30
0.000000
  70
    32
  0
VERTEX
  8
4
  5
335
 10
388.929
 20
434.118
 30
0.000000
  70
    32
  0
VERTEX
  8
4
  5
336
 10
388.927
 20
434.078
 30
0.000000
  70
    32
  0
VERTEX
  8
4
  5
337
 10
388.924
 20
434.038
 30
0.000000
  70
    32
  0
VERTEX
  8
4
  5
338
 10
388.922
 20
433.999
 30
0.000000
  70
    32
  0
VERTEX
  8
4
  5
339
 10
388.919
 20
433.960
 30
0.000000
  70
    32
  0
VERTEX
  8
4
  5
33A
 10
388.915
 20
433.921
 30
0.000000
  70
    32
  0
VERTEX
  8
4
  5
33B
 10
388.912
 20
433.882
 30
0.000000
  70
    32
  0
VERTEX
  8
4
  5
33C
 10
388.908
 20
433.843
 30
0.000000
  70
    32
  0
VERTEX
  8
4
  5
33D
 10
388.903
 20
433.804
 30
0.000000
  70
    32
  0
VERTEX
  8
4
  5
33E
 10
388.898
 20
433.766
 30
0.000000
  70
    32
  0
VERTEX
  8
4
  5
33F
 10
388.893
 20
433.728
 30
0.000000
  70
    32
  0
VERTEX
  8
4
  5
340
 10
388.887
 20
433.690
 30
0.000000
  70
    32
  0
VERTEX
  8
4
  5
341
 10
388.881
 20
433.653
 30
0.000000
  70
    32
  0
VERTEX
  8
4
  5
342
 10
388.874
 20
433.615
 30
0.000000
  70
    32
  0
VERTEX
  8
4
  5
343
 10
388.867
 20
433.578
 30
0.000000
  70
    32
  0
VERTEX
  8
4
  5
344
 10
388.860
 20
433.541
 30
0.000000
  70
    32
  0
VERTEX
  8
4
  5
345
 10
388.852
 20
433.505
 30
0.000000
  70
    32
  0
VERTEX
  8
4
  5
346
 10
388.843
 20
433.468
 30
0.000000
  70
    32
  0
VERTEX
  8
4
  5
347
 10
388.834
 20
433.432
 30
0.000000
  70
    32
  0
VERTEX
  8
4
  5
348
 10
388.825
 20
433.396
 30
0.000000
  70
    32
  0
VERTEX
  8
4
  5
349
 10
388.815
 20
433.361
 30
0.000000
  70
    32
  0
VERTEX
  8
4
  5
34A
 10
388.804
 20
433.325
 30
0.000000
  70
    32
  0
VERTEX
  8
4
  5
34B
 10
388.793
 20
433.290
 30
0.000000
  70
    32
  0
VERTEX
  8
4
  5
34C
 10
388.781
 20
433.256
 30
0.000000
  70
    32
  0
VERTEX
  8
4
  5
34D
 10
388.769
 20
433.221
 30
0.000000
  70
    32
  0
VERTEX
  8
4
  5
34E
 10
388.756
 20
433.187
 30
0.000000
  70
    32
  0
VERTEX
  8
4
  5
34F
 10
388.742
 20
433.153
 30
0.000000
  70
    32
  0
VERTEX
  8
4
  5
350
 10
388.729
 20
433.120
 30
0.000000
  70
    32
  0
VERTEX
  8
4
  5
351
 10
388.714
 20
433.086
 30
0.000000
  70
    32
  0
VERTEX
  8
4
  5
352
 10
388.699
 20
433.053
 30
0.000000
  70
    32
  0
VERTEX
  8
4
  5
353
 10
388.684
 20
433.020
 30
0.000000
  70
    32
  0
VERTEX
  8
4
  5
354
 10
388.668
 20
432.988
 30
0.000000
  70
    32
  0
VERTEX
  8
4
  5
355
 10
388.651
 20
432.956
 30
0.000000
  70
    32
  0
VERTEX
  8
4
  5
356
 10
388.634
 20
432.923
 30
0.000000
  70
    32
  0
VERTEX
  8
4
  5
357
 10
388.617
 20
432.892
 30
0.000000
  70
    32
  0
VERTEX
  8
4
  5
358
 10
388.599
 20
432.860
 30
0.000000
  70
    32
  0
VERTEX
  8
4
  5
359
 10
388.581
 20
432.829
 30
0.000000
  70
    32
  0
VERTEX
  8
4
  5
35A
 10
388.562
 20
432.798
 30
0.000000
  70
    32
  0
VERTEX
  8
4
  5
35B
 10
388.542
 20
432.767
 30
0.000000
  70
    32
  0
VERTEX
  8
4
  5
35C
 10
388.523
 20
432.737
 30
0.000000
  70
    32
  0
VERTEX
  8
4
  5
35D
 10
388.502
 20
432.706
 30
0.000000
  70
    32
  0
VERTEX
  8
4
  5
35E
 10
388.482
 20
432.676
 30
0.000000
  70
    32
  0
VERTEX
  8
4
  5
35F
 10
388.460
 20
432.646
 30
0.000000
  70
    32
  0
VERTEX
  8
4
  5
360
 10
388.439
 20
432.617
 30
0.000000
  70
    32
  0
VERTEX
  8
4
  5
361
 10
388.417
 20
432.587
 30
0.000000
  70
    32
  0
VERTEX
  8
4
  5
362
 10
388.394
 20
432.558
 30
0.000000
  70
    32
  0
VERTEX
  8
4
  5
363
 10
388.371
 20
432.529
 30
0.000000
  70
    32
  0
VERTEX
  8
4
  5
364
 10
388.348
 20
432.501
 30
0.000000
  70
    32
  0
VERTEX
  8
4
  5
365
 10
388.324
 20
432.472
 30
0.000000
  70
    32
  0
VERTEX
  8
4
  5
366
 10
388.300
 20
432.444
 30
0.000000
  70
    32
  0
VERTEX
  8
4
  5
367
 10
388.275
 20
432.416
 30
0.000000
  70
    32
  0
VERTEX
  8
4
  5
368
 10
388.250
 20
432.388
 30
0.000000
  70
    32
  0
VERTEX
  8
4
  5
369
 10
388.225
 20
432.360
 30
0.000000
  70
    32
  0
VERTEX
  8
4
  5
36A
 10
388.199
 20
432.333
 30
0.000000
  70
    32
  0
VERTEX
  8
4
  5
36B
 10
388.173
 20
432.306
 30
0.000000
  70
    32
  0
VERTEX
  8
4
  5
36C
 10
388.146
 20
432.279
 30
0.000000
  70
    32
  0
VERTEX
  8
4
  5
36D
 10
388.119
 20
432.252
 30
0.000000
  70
    32
  0
VERTEX
  8
4
  5
36E
 10
388.092
 20
432.225
 30
0.000000
  70
    32
  0
VERTEX
  8
4
  5
36F
 10
388.064
 20
432.199
 30
0.000000
  70
    32
  0
VERTEX
  8
4
  5
370
 10
388.036
 20
432.173
 30
0.000000
  70
    32
  0
VERTEX
  8
4
  5
371
 10
388.007
 20
432.146
 30
0.000000
  70
    32
  0
VERTEX
  8
4
  5
372
 10
387.978
 20
432.121
 30
0.000000
  70
    32
  0
VERTEX
  8
4
  5
373
 10
387.949
 20
432.095
 30
0.000000
  70
    32
  0
VERTEX
  8
4
  5
374
 10
387.920
 20
432.069
 30
0.000000
  70
    32
  0
VERTEX
  8
4
  5
375
 10
387.890
 20
432.044
 30
0.000000
  70
    32
  0
VERTEX
  8
4
  5
376
 10
387.859
 20
432.019
 30
0.000000
  70
    32
  0
VERTEX
  8
4
  5
377
 10
387.829
 20
431.994
 30
0.000000
  70
    32
  0
VERTEX
  8
4
  5
378
 10
387.798
 20
431.969
 30
0.000000
  70
    32
  0
VERTEX
  8
4
  5
379
 10
387.767
 20
431.944
 30
0.000000
  70
    32
  0
VERTEX
  8
4
  5
37A
 10
387.735
 20
431.920
 30
0.000000
  70
    32
  0
VERTEX
  8
4
  5
37B
 10
387.703
 20
431.896
 30
0.000000
  70
    32
  0
VERTEX
  8
4
  5
37C
 10
387.671
 20
431.871
 30
0.000000
  70
    32
  0
VERTEX
  8
4
  5
37D
 10
387.639
 20
431.847
 30
0.000000
  70
    32
  0
VERTEX
  8
4
  5
37E
 10
387.606
 20
431.824
 30
0.000000
  70
    32
  0
VERTEX
  8
4
  5
37F
 10
387.573
 20
431.800
 30
0.000000
  70
    32
  0
VERTEX
  8
4
  5
380
 10
387.540
 20
431.776
 30
0.000000
  70
    32
  0
VERTEX
  8
4
  5
381
 10
387.506
 20
431.753
 30
0.000000
  70
    32
  0
VERTEX
  8
4
  5
382
 10
387.472
 20
431.730
 30
0.000000
  70
    32
  0
VERTEX
  8
4
  5
383
 10
387.438
 20
431.707
 30
0.000000
  70
    32
  0
VERTEX
  8
4
  5
384
 10
387.403
 20
431.684
 30
0.000000
  70
    32
  0
VERTEX
  8
4
  5
385
 10
387.369
 20
431.661
 30
0.000000
  70
    32
  0
VERTEX
  8
4
  5
386
 10
387.334
 20
431.638
 30
0.000000
  70
    32
  0
VERTEX
  8
4
  5
387
 10
387.299
 20
431.616
 30
0.000000
  70
    32
  0
VERTEX
  8
4
  5
388
 10
387.263
 20
431.593
 30
0.000000
  70
    32
  0
VERTEX
  8
4
  5
389
 10
387.227
 20
431.571
 30
0.000000
  70
    32
  0
VERTEX
  8
4
  5
38A
 10
387.191
 20
431.549
 30
0.000000
  70
    32
  0
VERTEX
  8
4
  5
38B
 10
387.155
 20
431.526
 30
0.000000
  70
    32
  0
VERTEX
  8
4
  5
38C
 10
387.119
 20
431.505
 30
0.000000
  70
    32
  0
VERTEX
  8
4
  5
38D
 10
387.082
 20
431.483
 30
0.000000
  70
    32
  0
VERTEX
  8
4
  5
38E
 10
387.045
 20
431.461
 30
0.000000
  70
    32
  0
VERTEX
  8
4
  5
38F
 10
387.008
 20
431.439
 30
0.000000
  70
    32
  0
VERTEX
  8
4
  5
390
 10
386.971
 20
431.418
 30
0.000000
  70
    32
  0
VERTEX
  8
4
  5
391
 10
386.934
 20
431.396
 30
0.000000
  70
    32
  0
VERTEX
  8
4
  5
392
 10
386.896
 20
431.375
 30
0.000000
  70
    32
  0
VERTEX
  8
4
  5
393
 10
386.858
 20
431.354
 30
0.000000
  70
    32
  0
VERTEX
  8
4
  5
394
 10
386.820
 20
431.333
 30
0.000000
  70
    32
  0
VERTEX
  8
4
  5
395
 10
386.782
 20
431.312
 30
0.000000
  70
    32
  0
VERTEX
  8
4
  5
396
 10
386.743
 20
431.291
 30
0.000000
  70
    32
  0
VERTEX
  8
4
  5
397
 10
386.705
 20
431.270
 30
0.000000
  70
    32
  0
VERTEX
  8
4
  5
398
 10
386.666
 20
431.249
 30
0.000000
  70
    32
  0
VERTEX
  8
4
  5
399
 10
386.627
 20
431.229
 30
0.000000
  70
    32
  0
VERTEX
  8
4
  5
39A
 10
386.588
 20
431.208
 30
0.000000
  70
    32
  0
VERTEX
  8
4
  5
39B
 10
386.549
 20
431.188
 30
0.000000
  70
    32
  0
VERTEX
  8
4
  5
39C
 10
386.509
 20
431.167
 30
0.000000
  70
    32
  0
VERTEX
  8
4
  5
39D
 10
386.470
 20
431.147
 30
0.000000
  70
    32
  0
VERTEX
  8
4
  5
39E
 10
386.430
 20
431.127
 30
0.000000
  70
    32
  0
VERTEX
  8
4
  5
39F
 10
386.390
 20
431.106
 30
0.000000
  70
    32
  0
VERTEX
  8
4
  5
3A0
 10
386.350
 20
431.086
 30
0.000000
  70
    32
  0
VERTEX
  8
4
  5
3A1
 10
386.310
 20
431.066
 30
0.000000
  70
    32
  0
VERTEX
  8
4
  5
3A2
 10
386.270
 20
431.046
 30
0.000000
  70
    32
  0
VERTEX
  8
4
  5
3A3
 10
386.230
 20
431.026
 30
0.000000
  70
    32
  0
VERTEX
  8
4
  5
3A4
 10
386.189
 20
431.006
 30
0.000000
  70
    32
  0
VERTEX
  8
4
  5
3A5
 10
386.149
 20
430.987
 30
0.000000
  70
    32
  0
VERTEX
  8
4
  5
3A6
 10
386.108
 20
430.967
 30
0.000000
  70
    32
  0
VERTEX
  8
4
  5
3A7
 10
386.067
 20
430.947
 30
0.000000
  70
    32
  0
VERTEX
  8
4
  5
3A8
 10
386.027
 20
430.927
 30
0.000000
  70
    32
  0
VERTEX
  8
4
  5
3A9
 10
385.986
 20
430.908
 30
0.000000
  70
    32
  0
VERTEX
  8
4
  5
3AA
 10
385.945
 20
430.888
 30
0.000000
  70
    32
  0
VERTEX
  8
4
  5
3AB
 10
385.904
 20
430.869
 30
0.000000
  70
    32
  0
VERTEX
  8
4
  5
3AC
 10
385.863
 20
430.849
 30
0.000000
  70
    32
  0
VERTEX
  8
4
  5
3AD
 10
385.821
 20
430.830
 30
0.000000
  70
    32
  0
VERTEX
  8
4
  5
3AE
 10
385.780
 20
430.810
 30
0.000000
  70
    32
  0
VERTEX
  8
4
  5
3AF
 10
385.739
 20
430.791
 30
0.000000
  70
    32
  0
VERTEX
  8
4
  5
3B0
 10
385.698
 20
430.771
 30
0.000000
  70
    32
  0
VERTEX
  8
4
  5
3B1
 10
385.656
 20
430.752
 30
0.000000
  70
    32
  0
VERTEX
  8
4
  5
3B2
 10
385.615
 20
430.733
 30
0.000000
  70
    32
  0
VERTEX
  8
4
  5
3B3
 10
385.573
 20
430.713
 30
0.000000
  70
    32
  0
VERTEX
  8
4
  5
3B4
 10
385.532
 20
430.694
 30
0.000000
  70
    32
  0
VERTEX
  8
4
  5
3B5
 10
385.490
 20
430.675
 30
0.000000
  70
    32
  0
VERTEX
  8
4
  5
3B6
 10
385.449
 20
430.655
 30
0.000000
  70
    32
  0
VERTEX
  8
4
  5
3B7
 10
385.407
 20
430.636
 30
0.000000
  70
    32
  0
VERTEX
  8
4
  5
3B8
 10
385.366
 20
430.617
 30
0.000000
  70
    32
  0
VERTEX
  8
4
  5
3B9
 10
385.324
 20
430.597
 30
0.000000
  70
    32
  0
SEQEND
  8
4
  5
3BA
  0
POINT
  5
65
  8
0
 62
     1
 10
385.32281318653202
 20
475.3701953953348
 30
0.0
  0
ENDSEC
  0
EOF
