  0
SECTION
  2
HEADER
  9
$ACADVER
  1
AC1014
  9
$ACADMAINTVER
 70
     9
  9
$DWGCODEPAGE
  3
ANSI_932
  9
$INSBASE
 10
196.718665240078
 20
294.4391967046476
 30
0.0
  9
$EXTMIN
 10
165.559348240078
 20
289.6608816387839
 30
0.0
  9
$EXTMAX
 10
259.004257355494
 20
554.7762657046473
 30
0.0
  9
$LIMMIN
 10
31.0
 20
25.5
  9
$LIMMAX
 10
1219.0
 20
865.4999999999999
  9
$ORTHOMODE
 70
     1
  9
$REGENMODE
 70
     1
  9
$FILLMODE
 70
     1
  9
$QTEXTMODE
 70
     0
  9
$MIRRTEXT
 70
     0
  9
$DRAGMODE
 70
     2
  9
$LTSCALE
 40
2.0
  9
$OSMODE
 70
   513
  9
$ATTMODE
 70
     1
  9
$TEXTSIZE
 40
0.2
  9
$TRACEWID
 40
0.05
  9
$TEXTSTYLE
  7
ｽﾀｲﾙ1
  9
$CLAYER
  8
0
  9
$CELTYPE
  6
CONTINUOUS
  9
$CECOLOR
 62
   256
  9
$CELTSCALE
 40
1.0
  9
$DELOBJ
 70
     1
  9
$DISPSILH
 70
     0
  9
$DIMSCALE
 40
3.0
  9
$DIMASZ
 40
2.0
  9
$DIMEXO
 40
2.0
  9
$DIMDLI
 40
7.0
  9
$DIMRND
 40
0.0
  9
$DIMDLE
 40
0.0
  9
$DIMEXE
 40
0.5
  9
$DIMTP
 40
0.0
  9
$DIMTM
 40
0.0
  9
$DIMTXT
 40
2.0
  9
$DIMCEN
 40
0.09
  9
$DIMTSZ
 40
0.0
  9
$DIMTOL
 70
     0
  9
$DIMLIM
 70
     0
  9
$DIMTIH
 70
     0
  9
$DIMTOH
 70
     0
  9
$DIMSE1
 70
     0
  9
$DIMSE2
 70
     0
  9
$DIMTAD
 70
     1
  9
$DIMZIN
 70
     8
  9
$DIMBLK
  1
OPEN
  9
$DIMASO
 70
     1
  9
$DIMSHO
 70
     1
  9
$DIMPOST
  1

  9
$DIMAPOST
  1

  9
$DIMALT
 70
     0
  9
$DIMALTD
 70
     2
  9
$DIMALTF
 40
0.03937
  9
$DIMLFAC
 40
1.0
  9
$DIMTOFL
 70
     1
  9
$DIMTVP
 40
0.0
  9
$DIMTIX
 70
     0
  9
$DIMSOXD
 70
     0
  9
$DIMSAH
 70
     0
  9
$DIMBLK1
  1

  9
$DIMBLK2
  1

  9
$DIMSTYLE
  2
G1
  9
$DIMCLRD
 70
     0
  9
$DIMCLRE
 70
     0
  9
$DIMCLRT
 70
     7
  9
$DIMTFAC
 40
1.0
  9
$DIMGAP
 40
0.8
  9
$DIMJUST
 70
     0
  9
$DIMSD1
 70
     0
  9
$DIMSD2
 70
     0
  9
$DIMTOLJ
 70
     1
  9
$DIMTZIN
 70
     0
  9
$DIMALTZ
 70
     0
  9
$DIMALTTZ
 70
     0
  9
$DIMFIT
 70
     3
  9
$DIMUPT
 70
     0
  9
$DIMUNIT
 70
     2
  9
$DIMDEC
 70
     2
  9
$DIMTDEC
 70
     2
  9
$DIMALTU
 70
     2
  9
$DIMALTTD
 70
     2
  9
$DIMTXSTY
  7
STANDARD
  9
$DIMAUNIT
 70
     0
  9
$LUNITS
 70
     2
  9
$LUPREC
 70
     4
  9
$SKETCHINC
 40
0.1
  9
$FILLETRAD
 40
5.0
  9
$AUNITS
 70
     0
  9
$AUPREC
 70
     0
  9
$MENU
  1
.
  9
$ELEVATION
 40
0.0
  9
$PELEVATION
 40
0.0
  9
$THICKNESS
 40
0.0
  9
$LIMCHECK
 70
     0
  9
$BLIPMODE
 70
     0
  9
$CHAMFERA
 40
0.0
  9
$CHAMFERB
 40
0.0
  9
$CHAMFERC
 40
0.0
  9
$CHAMFERD
 40
0.0
  9
$SKPOLY
 70
     0
  9
$TDCREATE
 40
2452110.000000000
  9
$TDUPDATE
 40
2453944.013054108
  9
$TDINDWG
 40
0.4443567245
  9
$TDUSRTIMER
 40
0.4443565394
  9
$USRTIMER
 70
     1
  9
$ANGBASE
 50
0.0
  9
$ANGDIR
 70
     0
  9
$PDMODE
 70
     3
  9
$PDSIZE
 40
0.0
  9
$PLINEWID
 40
0.0
  9
$COORDS
 70
     1
  9
$SPLFRAME
 70
     0
  9
$SPLINETYPE
 70
     6
  9
$SPLINESEGS
 70
     8
  9
$ATTDIA
 70
     0
  9
$ATTREQ
 70
     1
  9
$HANDLING
 70
 10241
  9
$HANDSEED
  5
15A
  9
$SURFTAB1
 70
     6
  9
$SURFTAB2
 70
     6
  9
$SURFTYPE
 70
     6
  9
$SURFU
 70
     6
  9
$SURFV
 70
     6
  9
$UCSNAME
  2

  9
$UCSORG
 10
0.0
 20
0.0
 30
0.0
  9
$UCSXDIR
 10
1.0
 20
0.0
 30
0.0
  9
$UCSYDIR
 10
0.0
 20
1.0
 30
0.0
  9
$PUCSNAME
  2

  9
$PUCSORG
 10
0.0
 20
0.0
 30
0.0
  9
$PUCSXDIR
 10
1.0
 20
0.0
 30
0.0
  9
$PUCSYDIR
 10
0.0
 20
1.0
 30
0.0
  9
$USERI1
 70
     0
  9
$USERI2
 70
     0
  9
$USERI3
 70
     0
  9
$USERI4
 70
     0
  9
$USERI5
 70
     0
  9
$USERR1
 40
0.0
  9
$USERR2
 40
0.0
  9
$USERR3
 40
0.0
  9
$USERR4
 40
0.0
  9
$USERR5
 40
0.0
  9
$WORLDVIEW
 70
     1
  9
$SHADEDGE
 70
     3
  9
$SHADEDIF
 70
    70
  9
$TILEMODE
 70
     1
  9
$MAXACTVP
 70
    48
  9
$PINSBASE
 10
0.0
 20
0.0
 30
0.0
  9
$PLIMCHECK
 70
     0
  9
$PEXTMIN
 10
1.000000000000000E+20
 20
1.000000000000000E+20
 30
1.000000000000000E+20
  9
$PEXTMAX
 10
-1.000000000000000E+20
 20
-1.000000000000000E+20
 30
-1.000000000000000E+20
  9
$PLIMMIN
 10
0.0
 20
0.0
  9
$PLIMMAX
 10
12.0
 20
9.0
  9
$UNITMODE
 70
     0
  9
$VISRETAIN
 70
     1
  9
$PLINEGEN
 70
     0
  9
$PSLTSCALE
 70
     1
  9
$TREEDEPTH
 70
  3020
  9
$PICKSTYLE
 70
     1
  9
$CMLSTYLE
  2
STANDARD
  9
$CMLJUST
 70
     0
  9
$CMLSCALE
 40
1.0
  9
$PROXYGRAPHICS
 70
     1
  9
$MEASUREMENT
 70
     0
  0
ENDSEC
  0
SECTION
  2
CLASSES
  0
CLASS
  1
ACDBDICTIONARYWDFLT
  2
AcDbDictionaryWithDefault
  3
AutoCAD 2000
 90
        0
280
     0
281
     0
  0
CLASS
  1
ACDBPLACEHOLDER
  2
AcDbPlaceHolder
  3
AutoCAD 2000
 90
        0
280
     0
281
     0
  0
CLASS
  1
LAYOUT
  2
AcDbLayout
  3
AutoCAD 2000
 90
        0
280
     0
281
     0
  0
CLASS
  1
TABLESTYLE
  2
AcDbTableStyle
  3
ObjectDBX Classes
 90
     2047
280
     0
281
     0
  0
CLASS
  1
SORTENTSTABLE
  2
AcDbSortentsTable
  3
AutoCAD 2000
 90
        0
280
     0
281
     0
  0
CLASS
  1
DICTIONARYVAR
  2
AcDbDictionaryVar
  3
AutoCAD 2000
 90
        0
280
     0
281
     0
  0
CLASS
  1
ACAD_PROXY_OBJECT_WRAPPER
  2
AcDbProxyObjectWrapper
  3
AutoCAD 2000
 90
        0
280
     0
281
     0
  0
CLASS
  1
LONG_TRANSACTION
  2
AcDbLongTransaction
  3
AutoCAD 2000
 90
        0
280
     0
281
     0
  0
CLASS
  1
LWPOLYLINE
  2
AcDbPolyline
  3
AutoCAD 2000
 90
        0
280
     0
281
     1
  0
CLASS
  1
HATCH
  2
AcDbHatch
  3
AutoCAD 2000
 90
        0
280
     0
281
     1
  0
CLASS
  1
XRECORD
  2
AcDbXrecord
  3
AutoCAD 2000
 90
        0
280
     0
281
     0
  0
CLASS
  1
LONG_TRANSACTION
  2
AcDbLongTransaction
  3
AutoCAD 2000
 90
        0
280
     0
281
     0
  0
CLASS
  1
LWPOLYLINE
  2
AcDbPolyline
  3
AutoCAD 2000
 90
        0
280
     0
281
     1
  0
CLASS
  1
HATCH
  2
AcDbHatch
  3
AutoCAD 2000
 90
        0
280
     0
281
     1
  0
CLASS
  1
XRECORD
  2
AcDbXrecord
  3
AutoCAD 2000
 90
        0
280
     0
281
     0
  0
ENDSEC
  0
SECTION
  2
TABLES
  0
TABLE
  2
VPORT
  5
23
330
0
100
AcDbSymbolTable
 70
     2
  0
VPORT
  5
136
330
23
100
AcDbSymbolTableRecord
100
AcDbViewportTableRecord
  2
*ACTIVE
 70
     0
 10
0.0
 20
0.0
 11
1.0
 21
1.0
 12
219.9903728521712
 22
421.3071918690197
 13
0.0
 23
0.0
 14
1.0
 24
1.0
 15
0.0
 25
0.0
 16
0.0
 26
0.0
 36
1.0
 17
0.0
 27
0.0
 37
0.0
 40
270.32557490962
 41
1.933867735470941
 42
50.0
 43
0.0
 44
0.0
 50
0.0
 51
0.0
 71
     0
 72
   100
 73
     1
 74
     1
 75
     0
 76
     0
 77
     0
 78
     0
  0
ENDTAB
  0
TABLE
  2
LTYPE
  5
1E
330
0
100
AcDbSymbolTable
 70
     1
  0
LTYPE
  5
1F
330
1E
100
AcDbSymbolTableRecord
100
AcDbLinetypeTableRecord
  2
BYBLOCK
 70
     0
  3

 72
    65
 73
     0
 40
0.0
  0
LTYPE
  5
20
330
1E
100
AcDbSymbolTableRecord
100
AcDbLinetypeTableRecord
  2
BYLAYER
 70
     0
  3

 72
    65
 73
     0
 40
0.0
  0
LTYPE
  5
C
330
1E
100
AcDbSymbolTableRecord
100
AcDbLinetypeTableRecord
  2
CONTINUOUS
 70
     0
  3
Solid line
 72
    65
 73
     0
 40
0.0
  0
ENDTAB
  0
TABLE
  2
LAYER
  5
17
102
{ACAD_XDICTIONARY
360
18
102
}
330
0
100
AcDbSymbolTable
 70
     2
  0
LAYER
  5
7
330
17
100
AcDbSymbolTableRecord
100
AcDbLayerTableRecord
  2
0
 70
     0
 62
     7
  6
CONTINUOUS
  0
LAYER
  5
39
330
17
100
AcDbSymbolTableRecord
100
AcDbLayerTableRecord
  2
OUTLINE
 70
     0
 62
     7
  6
CONTINUOUS
1001
ACAECLAYERSTANDARD
1000

1000

  0
ENDTAB
  0
TABLE
  2
STYLE
  5
1B
330
0
100
AcDbSymbolTable
 70
     2
  0
STYLE
  5
1C
330
1B
100
AcDbSymbolTableRecord
100
AcDbTextStyleTableRecord
  2
STANDARD
 70
     0
 40
0.0
 41
1.0
 50
0.0
 71
     0
 42
0.2
  3
romans.shx
  4
bigfont.shx
  0
STYLE
  5
35
330
1B
100
AcDbSymbolTableRecord
100
AcDbTextStyleTableRecord
  2
ｽﾀｲﾙ1
 70
     0
 40
0.0
 41
0.9
 50
0.0
 71
     0
 42
0.2
  3
MS PGothic.ttf
  4

1001
ACAD
1000
MS PGothic
1071
    32818
  0
ENDTAB
  0
TABLE
  2
VIEW
  5
21
330
0
100
AcDbSymbolTable
 70
     0
  0
ENDTAB
  0
TABLE
  2
UCS
  5
22
330
0
100
AcDbSymbolTable
 70
     0
  0
ENDTAB
  0
TABLE
  2
APPID
  5
25
330
0
100
AcDbSymbolTable
 70
     3
  0
APPID
  5
B
330
25
100
AcDbSymbolTableRecord
100
AcDbRegAppTableRecord
  2
ACAD
 70
     0
  0
APPID
  5
3A
330
25
100
AcDbSymbolTableRecord
100
AcDbRegAppTableRecord
  2
ACAECLAYERSTANDARD
 70
     0
  0
APPID
  5
10
330
25
100
AcDbSymbolTableRecord
100
AcDbRegAppTableRecord
  2
ACAD_PSEXT
 70
     0
  0
ENDTAB
  0
TABLE
  2
DIMSTYLE
  5
26
330
0
100
AcDbSymbolTable
 70
     1
  0
DIMSTYLE
105
27
330
26
100
AcDbSymbolTableRecord
100
AcDbDimStyleTableRecord
  2
G1
 70
     0
  3

  4

  5
OPEN
  6

  7

 40
3.0
 41
2.0
 42
2.0
 43
7.0
 44
0.5
 45
0.0
 46
0.0
 47
0.0
 48
0.0
140
2.0
141
0.09
142
0.0
143
0.03937
144
1.0
145
0.0
146
1.0
147
0.8
 71
     0
 72
     0
 73
     0
 74
     0
 75
     0
 76
     0
 77
     1
 78
     8
170
     0
171
     2
172
     1
173
     0
174
     0
175
     0
176
     0
177
     0
178
     7
270
     2
271
     2
272
     2
273
     2
274
     2
340
1C
275
     0
280
     0
281
     0
282
     0
283
     1
284
     0
285
     0
286
     0
287
     3
288
     0
  0
ENDTAB
  0
TABLE
  2
BLOCK_RECORD
  5
1
330
0
100
AcDbSymbolTable
 70
     1
  0
BLOCK_RECORD
  5
2
102
{ACAD_XDICTIONARY
360
3
102
}
330
1
100
AcDbSymbolTableRecord
100
AcDbBlockTableRecord
  2
*MODEL_SPACE
  0
BLOCK_RECORD
  5
11
102
{ACAD_XDICTIONARY
360
12
102
}
330
1
100
AcDbSymbolTableRecord
100
AcDbBlockTableRecord
  2
*PAPER_SPACE
  0
BLOCK_RECORD
  5
28
330
1
100
AcDbSymbolTableRecord
100
AcDbBlockTableRecord
  2
_OPEN
  0
ENDTAB
  0
ENDSEC
  0
SECTION
  2
BLOCKS
  0
BLOCK
  5
6
330
2
100
AcDbEntity
  8
0
100
AcDbBlockBegin
  2
*MODEL_SPACE
 70
     0
 10
0.0
 20
0.0
 30
0.0
  3
*MODEL_SPACE
  1

  0
ENDBLK
  5
D
330
2
100
AcDbEntity
  8
0
100
AcDbBlockEnd
  0
BLOCK
  5
14
330
11
100
AcDbEntity
 67
     1
  8
0
100
AcDbBlockBegin
  2
*PAPER_SPACE
 70
     0
 10
0.0
 20
0.0
 30
0.0
  3
*PAPER_SPACE
  1

  0
ENDBLK
  5
15
330
11
100
AcDbEntity
 67
     1
  8
0
100
AcDbBlockEnd
  0
BLOCK
  5
29
330
28
100
AcDbEntity
  8
0
100
AcDbBlockBegin
  2
_OPEN
 70
     0
 10
0.0
 20
0.0
 30
0.0
  3
_OPEN
  1

  0
LINE
  5
2A
330
28
100
AcDbEntity
  8
0
 62
     0
100
AcDbLine
 10
-0.9659259999999999
 20
0.258819
 30
0.0
 11
0.0
 21
0.0
 31
0.0
  0
LINE
  5
2B
330
28
100
AcDbEntity
  8
0
 62
     0
100
AcDbLine
 10
0.0
 20
0.0
 30
0.0
 11
-0.9659259999999999
 21
-0.258819
 31
0.0
  0
LINE
  5
2C
330
28
100
AcDbEntity
  8
0
 62
     0
100
AcDbLine
 10
0.0
 20
0.0
 30
0.0
 11
-1.0
 21
0.0
 31
0.0
  0
ENDBLK
  5
2D
330
28
100
AcDbEntity
  8
0
100
AcDbBlockEnd
  0
ENDSEC
  0
SECTION
  2
ENTITIES
  0
LINE
  5
38
330
2
100
AcDbEntity
  8
OUTLINE
 62
     7
100
AcDbLine
 10
170.7186652400779
 20
366.4391967046475
 30
0.0
 11
170.7186652400779
 21
294.4391967046476
 31
0.0
  0
LINE
  5
3B
330
2
100
AcDbEntity
  8
OUTLINE
 62
     7
100
AcDbLine
 10
222.718665240078
 20
294.4391967046476
 30
0.0
 11
170.7186652400779
 21
294.4391967046476
 31
0.0
  0
LINE
  5
3C
330
2
100
AcDbEntity
  8
OUTLINE
 62
     7
100
AcDbLine
 10
222.718665240078
 20
317.4392077046474
 30
0.0
 11
222.718665240078
 21
294.4391967046476
 31
0.0
  0
LINE
  5
3D
330
2
100
AcDbEntity
  8
OUTLINE
 62
     7
100
AcDbLine
 10
222.718665240078
 20
404.9391967046475
 30
0.0
 11
222.718665240078
 21
357.4391627046475
 31
0.0
  0
LINE
  5
3E
330
2
100
AcDbEntity
  8
OUTLINE
 62
     7
100
AcDbLine
 10
197.9251172400779
 20
299.4391967046476
 30
0.0
 11
196.7251352400779
 21
299.4391967046476
 31
0.0
  0
LINE
  5
3F
330
2
100
AcDbEntity
  8
OUTLINE
 62
     7
100
AcDbLine
 10
195.525123240078
 20
299.4391967046476
 30
0.0
 11
196.7251352400779
 21
299.4391967046476
 31
0.0
  0
LINE
  5
40
330
2
100
AcDbEntity
  8
OUTLINE
 62
     7
100
AcDbLine
 10
195.525123240078
 20
300.9434917046476
 30
0.0
 11
195.525123240078
 21
299.4391967046476
 31
0.0
  0
LINE
  5
41
330
2
100
AcDbEntity
  8
OUTLINE
 62
     7
100
AcDbLine
 10
193.725135240078
 20
303.9391967046475
 30
0.0
 11
195.525123240078
 21
300.9434917046476
 31
0.0
  0
LINE
  5
42
330
2
100
AcDbEntity
  8
OUTLINE
 62
     7
100
AcDbLine
 10
194.9251172400779
 20
303.9391967046475
 30
0.0
 11
196.7316052400781
 21
302.1327237046475
 31
0.0
  0
LINE
  5
43
330
2
100
AcDbEntity
  8
OUTLINE
 62
     7
100
AcDbLine
 10
193.725135240078
 20
303.9391967046475
 30
0.0
 11
194.9251172400779
 21
303.9391967046475
 31
0.0
  0
LINE
  5
44
330
2
100
AcDbEntity
  8
OUTLINE
 62
     7
100
AcDbLine
 10
193.1251292400778
 20
303.9391967046475
 30
0.0
 11
191.9251172400779
 21
303.9391967046475
 31
0.0
  0
LINE
  5
45
330
2
100
AcDbEntity
  8
OUTLINE
 62
     7
100
AcDbLine
 10
191.9251172400779
 20
303.9391967046475
 30
0.0
 11
190.7251352400781
 21
301.2391917046476
 31
0.0
  0
LINE
  5
46
330
2
100
AcDbEntity
  8
OUTLINE
 62
     7
100
AcDbLine
 10
189.525123240078
 20
303.9391967046475
 30
0.0
 11
190.7251352400781
 21
301.2391917046476
 31
0.0
  0
LINE
  5
47
330
2
100
AcDbEntity
  8
OUTLINE
 62
     7
100
AcDbLine
 10
188.3251412400779
 20
303.9391967046475
 30
0.0
 11
189.525123240078
 21
303.9391967046475
 31
0.0
  0
LINE
  5
48
330
2
100
AcDbEntity
  8
OUTLINE
 62
     7
100
AcDbLine
 10
188.3251412400779
 20
303.9391967046475
 30
0.0
 11
187.725135240078
 21
299.4391967046476
 31
0.0
  0
LINE
  5
49
330
2
100
AcDbEntity
  8
OUTLINE
 62
     7
100
AcDbLine
 10
187.725135240078
 20
299.4391967046476
 30
0.0
 11
188.9251172400778
 21
299.4391967046476
 31
0.0
  0
LINE
  5
4A
330
2
100
AcDbEntity
  8
OUTLINE
 62
     7
100
AcDbLine
 10
189.3751292400778
 20
300.8991957046474
 30
0.0
 11
188.9251172400778
 21
299.4391967046476
 31
0.0
  0
LINE
  5
4B
330
2
100
AcDbEntity
  8
OUTLINE
 62
     7
100
AcDbLine
 10
189.3751292400778
 20
300.8991957046474
 30
0.0
 11
189.8251412400778
 21
299.4391967046476
 31
0.0
  0
LINE
  5
4C
330
2
100
AcDbEntity
  8
OUTLINE
 62
     7
100
AcDbLine
 10
189.8251412400778
 20
299.4391967046476
 30
0.0
 11
190.7251352400781
 21
299.4391967046476
 31
0.0
  0
LINE
  5
4D
330
2
100
AcDbEntity
  8
OUTLINE
 62
     7
100
AcDbLine
 10
192.0751412400779
 20
300.8991957046474
 30
0.0
 11
191.6251292400778
 21
299.4391967046476
 31
0.0
  0
LINE
  5
4E
330
2
100
AcDbEntity
  8
OUTLINE
 62
     7
100
AcDbLine
 10
191.6251292400778
 20
299.4391967046476
 30
0.0
 11
190.7251352400781
 21
299.4391967046476
 31
0.0
  0
LINE
  5
4F
330
2
100
AcDbEntity
  8
OUTLINE
 62
     7
100
AcDbLine
 10
192.0751412400779
 20
300.8991957046474
 30
0.0
 11
192.525123240078
 21
299.4391967046476
 31
0.0
  0
LINE
  5
50
330
2
100
AcDbEntity
  8
OUTLINE
 62
     7
100
AcDbLine
 10
193.725135240078
 20
299.4391967046476
 30
0.0
 11
192.525123240078
 21
299.4391967046476
 31
0.0
  0
LINE
  5
51
330
2
100
AcDbEntity
  8
OUTLINE
 62
     7
100
AcDbLine
 10
193.1251292400778
 20
303.9391967046475
 30
0.0
 11
193.725135240078
 21
299.4391967046476
 31
0.0
  0
LINE
  5
52
330
2
100
AcDbEntity
  8
OUTLINE
 62
     7
100
AcDbLine
 10
205.1251292400778
 20
303.9391967046475
 30
0.0
 11
205.725135240078
 21
299.4391967046476
 31
0.0
  0
LINE
  5
53
330
2
100
AcDbEntity
  8
OUTLINE
 62
     7
100
AcDbLine
 10
205.725135240078
 20
299.4391967046476
 30
0.0
 11
204.525123240078
 21
299.4391967046476
 31
0.0
  0
LINE
  5
54
330
2
100
AcDbEntity
  8
OUTLINE
 62
     7
100
AcDbLine
 10
204.0751412400779
 20
300.8991957046474
 30
0.0
 11
203.6251292400778
 21
299.4391967046476
 31
0.0
  0
LINE
  5
55
330
2
100
AcDbEntity
  8
OUTLINE
 62
     7
100
AcDbLine
 10
204.0751412400779
 20
300.8991957046474
 30
0.0
 11
204.525123240078
 21
299.4391967046476
 31
0.0
  0
LINE
  5
56
330
2
100
AcDbEntity
  8
OUTLINE
 62
     7
100
AcDbLine
 10
203.6251292400778
 20
299.4391967046476
 30
0.0
 11
202.7251352400781
 21
299.4391967046476
 31
0.0
  0
LINE
  5
57
330
2
100
AcDbEntity
  8
OUTLINE
 62
     7
100
AcDbLine
 10
201.8251412400779
 20
299.4391967046476
 30
0.0
 11
202.7251352400781
 21
299.4391967046476
 31
0.0
  0
LINE
  5
58
330
2
100
AcDbEntity
  8
OUTLINE
 62
     7
100
AcDbLine
 10
201.3751292400778
 20
300.8991957046474
 30
0.0
 11
201.8251412400779
 21
299.4391967046476
 31
0.0
  0
LINE
  5
59
330
2
100
AcDbEntity
  8
OUTLINE
 62
     7
100
AcDbLine
 10
201.3751292400778
 20
300.8991957046474
 30
0.0
 11
200.9251172400778
 21
299.4391967046476
 31
0.0
  0
LINE
  5
5A
330
2
100
AcDbEntity
  8
OUTLINE
 62
     7
100
AcDbLine
 10
199.725135240078
 20
299.4391967046476
 30
0.0
 11
200.9251172400778
 21
299.4391967046476
 31
0.0
  0
LINE
  5
5B
330
2
100
AcDbEntity
  8
OUTLINE
 62
     7
100
AcDbLine
 10
200.3251412400778
 20
303.9391967046475
 30
0.0
 11
199.725135240078
 21
299.4391967046476
 31
0.0
  0
LINE
  5
5C
330
2
100
AcDbEntity
  8
OUTLINE
 62
     7
100
AcDbLine
 10
200.3251412400778
 20
303.9391967046475
 30
0.0
 11
201.525123240078
 21
303.9391967046475
 31
0.0
  0
LINE
  5
5D
330
2
100
AcDbEntity
  8
OUTLINE
 62
     7
100
AcDbLine
 10
201.525123240078
 20
303.9391967046475
 30
0.0
 11
202.7251352400781
 21
301.2391917046476
 31
0.0
  0
LINE
  5
5E
330
2
100
AcDbEntity
  8
OUTLINE
 62
     7
100
AcDbLine
 10
205.1251292400778
 20
303.9391967046475
 30
0.0
 11
203.9251172400779
 21
303.9391967046475
 31
0.0
  0
LINE
  5
5F
330
2
100
AcDbEntity
  8
OUTLINE
 62
     7
100
AcDbLine
 10
203.9251172400779
 20
303.9391967046475
 30
0.0
 11
202.7251352400781
 21
301.2391917046476
 31
0.0
  0
LINE
  5
60
330
2
100
AcDbEntity
  8
OUTLINE
 62
     7
100
AcDbLine
 10
199.725135240078
 20
303.9391967046475
 30
0.0
 11
197.9251172400779
 21
300.9434917046476
 31
0.0
  0
LINE
  5
61
330
2
100
AcDbEntity
  8
OUTLINE
 62
     7
100
AcDbLine
 10
199.725135240078
 20
303.9391967046475
 30
0.0
 11
198.525123240078
 21
303.9391967046475
 31
0.0
  0
LINE
  5
62
330
2
100
AcDbEntity
  8
OUTLINE
 62
     7
100
AcDbLine
 10
198.525123240078
 20
303.9391967046475
 30
0.0
 11
196.718665240078
 21
302.1327237046475
 31
0.0
  0
LINE
  5
63
330
2
100
AcDbEntity
  8
OUTLINE
 62
     7
100
AcDbLine
 10
197.9251172400779
 20
300.9434917046476
 30
0.0
 11
197.9251172400779
 21
299.4391967046476
 31
0.0
  0
LINE
  5
64
330
2
100
AcDbEntity
  8
OUTLINE
 62
     7
100
AcDbLine
 10
187.725135240078
 20
299.4391967046476
 30
0.0
 11
188.3251412400781
 21
303.9391967046475
 31
0.0
  0
LINE
  5
65
330
2
100
AcDbEntity
  8
OUTLINE
 62
     7
100
AcDbLine
 10
188.3251412400781
 20
303.9391967046475
 30
0.0
 11
189.525123240078
 21
303.9391967046475
 31
0.0
  0
LINE
  5
66
330
2
100
AcDbEntity
  8
OUTLINE
 62
     7
100
AcDbLine
 10
189.525123240078
 20
303.9391967046475
 30
0.0
 11
190.7251352400781
 21
301.2391917046476
 31
0.0
  0
LINE
  5
67
330
2
100
AcDbEntity
  8
OUTLINE
 62
     7
100
AcDbLine
 10
190.7251352400781
 20
301.2391917046476
 30
0.0
 11
191.925117240078
 21
303.9391967046475
 31
0.0
  0
LINE
  5
68
330
2
100
AcDbEntity
  8
OUTLINE
 62
     7
100
AcDbLine
 10
191.925117240078
 20
303.9391967046475
 30
0.0
 11
193.125129240078
 21
303.9391967046475
 31
0.0
  0
LINE
  5
69
330
2
100
AcDbEntity
  8
OUTLINE
 62
     7
100
AcDbLine
 10
193.125129240078
 20
303.9391967046475
 30
0.0
 11
193.725135240078
 21
299.4391967046476
 31
0.0
  0
LINE
  5
6A
330
2
100
AcDbEntity
  8
OUTLINE
 62
     7
100
AcDbLine
 10
193.725135240078
 20
299.4391967046476
 30
0.0
 11
192.525123240078
 21
299.4391967046476
 31
0.0
  0
LINE
  5
6B
330
2
100
AcDbEntity
  8
OUTLINE
 62
     7
100
AcDbLine
 10
192.525123240078
 20
299.4391967046476
 30
0.0
 11
192.075141240078
 21
300.8991957046474
 31
0.0
  0
LINE
  5
6C
330
2
100
AcDbEntity
  8
OUTLINE
 62
     7
100
AcDbLine
 10
192.075141240078
 20
300.8991957046474
 30
0.0
 11
191.625129240078
 21
299.4391967046476
 31
0.0
  0
LINE
  5
6D
330
2
100
AcDbEntity
  8
OUTLINE
 62
     7
100
AcDbLine
 10
191.625129240078
 20
299.4391967046476
 30
0.0
 11
189.8251412400781
 21
299.4391967046476
 31
0.0
  0
LINE
  5
6E
330
2
100
AcDbEntity
  8
OUTLINE
 62
     7
100
AcDbLine
 10
189.8251412400781
 20
299.4391967046476
 30
0.0
 11
189.375129240078
 21
300.8991957046474
 31
0.0
  0
LINE
  5
6F
330
2
100
AcDbEntity
  8
OUTLINE
 62
     7
100
AcDbLine
 10
189.375129240078
 20
300.8991957046474
 30
0.0
 11
188.925117240078
 21
299.4391967046476
 31
0.0
  0
LINE
  5
70
330
2
100
AcDbEntity
  8
OUTLINE
 62
     7
100
AcDbLine
 10
188.925117240078
 20
299.4391967046476
 30
0.0
 11
187.725135240078
 21
299.4391967046476
 31
0.0
  0
LINE
  5
71
330
2
100
AcDbEntity
  8
OUTLINE
 62
     7
100
AcDbLine
 10
193.725135240078
 20
303.9391967046475
 30
0.0
 11
194.925117240078
 21
303.9391967046475
 31
0.0
  0
LINE
  5
72
330
2
100
AcDbEntity
  8
OUTLINE
 62
     7
100
AcDbLine
 10
194.925117240078
 20
303.9391967046475
 30
0.0
 11
196.7251352400779
 21
302.1391937046475
 31
0.0
  0
LINE
  5
73
330
2
100
AcDbEntity
  8
OUTLINE
 62
     7
100
AcDbLine
 10
196.7251352400779
 20
302.1391937046475
 30
0.0
 11
198.525123240078
 21
303.9391967046475
 31
0.0
  0
LINE
  5
74
330
2
100
AcDbEntity
  8
OUTLINE
 62
     7
100
AcDbLine
 10
198.525123240078
 20
303.9391967046475
 30
0.0
 11
199.725135240078
 21
303.9391967046475
 31
0.0
  0
LINE
  5
75
330
2
100
AcDbEntity
  8
OUTLINE
 62
     7
100
AcDbLine
 10
199.725135240078
 20
303.9391967046475
 30
0.0
 11
197.925117240078
 21
300.9434917046476
 31
0.0
  0
LINE
  5
76
330
2
100
AcDbEntity
  8
OUTLINE
 62
     7
100
AcDbLine
 10
197.925117240078
 20
300.9434917046476
 30
0.0
 11
197.925117240078
 21
299.4391967046476
 31
0.0
  0
LINE
  5
77
330
2
100
AcDbEntity
  8
OUTLINE
 62
     7
100
AcDbLine
 10
197.925117240078
 20
299.4391967046476
 30
0.0
 11
195.525123240078
 21
299.4391967046476
 31
0.0
  0
LINE
  5
78
330
2
100
AcDbEntity
  8
OUTLINE
 62
     7
100
AcDbLine
 10
195.525123240078
 20
299.4391967046476
 30
0.0
 11
195.525123240078
 21
300.9434917046476
 31
0.0
  0
LINE
  5
79
330
2
100
AcDbEntity
  8
OUTLINE
 62
     7
100
AcDbLine
 10
195.525123240078
 20
300.9434917046476
 30
0.0
 11
193.725135240078
 21
303.9391967046475
 31
0.0
  0
LINE
  5
7A
330
2
100
AcDbEntity
  8
OUTLINE
 62
     7
100
AcDbLine
 10
200.3251412400781
 20
303.9391967046475
 30
0.0
 11
201.525123240078
 21
303.9391967046475
 31
0.0
  0
LINE
  5
7B
330
2
100
AcDbEntity
  8
OUTLINE
 62
     7
100
AcDbLine
 10
201.525123240078
 20
303.9391967046475
 30
0.0
 11
202.7251352400781
 21
301.2391917046476
 31
0.0
  0
LINE
  5
7C
330
2
100
AcDbEntity
  8
OUTLINE
 62
     7
100
AcDbLine
 10
202.7251352400781
 20
301.2391917046476
 30
0.0
 11
203.925117240078
 21
303.9391967046475
 31
0.0
  0
LINE
  5
7D
330
2
100
AcDbEntity
  8
OUTLINE
 62
     7
100
AcDbLine
 10
203.925117240078
 20
303.9391967046475
 30
0.0
 11
205.125129240078
 21
303.9391967046475
 31
0.0
  0
LINE
  5
7E
330
2
100
AcDbEntity
  8
OUTLINE
 62
     7
100
AcDbLine
 10
205.125129240078
 20
303.9391967046475
 30
0.0
 11
205.725135240078
 21
299.4391967046476
 31
0.0
  0
LINE
  5
7F
330
2
100
AcDbEntity
  8
OUTLINE
 62
     7
100
AcDbLine
 10
205.725135240078
 20
299.4391967046476
 30
0.0
 11
204.525123240078
 21
299.4391967046476
 31
0.0
  0
LINE
  5
80
330
2
100
AcDbEntity
  8
OUTLINE
 62
     7
100
AcDbLine
 10
204.525123240078
 20
299.4391967046476
 30
0.0
 11
204.0751412400779
 21
300.8991957046474
 31
0.0
  0
LINE
  5
81
330
2
100
AcDbEntity
  8
OUTLINE
 62
     7
100
AcDbLine
 10
204.0751412400779
 20
300.8991957046474
 30
0.0
 11
203.625129240078
 21
299.4391967046476
 31
0.0
  0
LINE
  5
82
330
2
100
AcDbEntity
  8
OUTLINE
 62
     7
100
AcDbLine
 10
203.625129240078
 20
299.4391967046476
 30
0.0
 11
201.8251412400779
 21
299.4391967046476
 31
0.0
  0
LINE
  5
83
330
2
100
AcDbEntity
  8
OUTLINE
 62
     7
100
AcDbLine
 10
201.8251412400779
 20
299.4391967046476
 30
0.0
 11
201.375129240078
 21
300.8991957046474
 31
0.0
  0
LINE
  5
84
330
2
100
AcDbEntity
  8
OUTLINE
 62
     7
100
AcDbLine
 10
201.375129240078
 20
300.8991957046474
 30
0.0
 11
200.925117240078
 21
299.4391967046476
 31
0.0
  0
LINE
  5
85
330
2
100
AcDbEntity
  8
OUTLINE
 62
     7
100
AcDbLine
 10
200.925117240078
 20
299.4391967046476
 30
0.0
 11
199.725135240078
 21
299.4391967046476
 31
0.0
  0
LINE
  5
86
330
2
100
AcDbEntity
  8
OUTLINE
 62
     7
100
AcDbLine
 10
199.725135240078
 20
299.4391967046476
 30
0.0
 11
200.3251412400781
 21
303.9391967046475
 31
0.0
  0
LINE
  5
87
330
2
100
AcDbEntity
  8
OUTLINE
 62
     7
100
AcDbLine
 10
239.358665240078
 20
354.9391967046476
 30
0.0
 11
232.7186652400778
 21
354.9391967046476
 31
0.0
  0
LINE
  5
88
330
2
100
AcDbEntity
  8
OUTLINE
 62
     7
100
AcDbLine
 10
243.718665240078
 20
357.5520347046476
 30
0.0
 11
251.718665240078
 21
357.5520347046476
 31
0.0
  0
LINE
  5
89
330
2
100
AcDbEntity
  8
OUTLINE
 62
     7
100
AcDbLine
 10
243.718665240078
 20
352.4391967046476
 30
0.0
 11
251.718665240078
 21
352.4391967046476
 31
0.0
  0
LINE
  5
8A
330
2
100
AcDbEntity
  8
OUTLINE
 62
     7
100
AcDbLine
 10
241.718665240078
 20
355.5520347046476
 30
0.0
 11
241.718665240078
 21
354.4391967046475
 31
0.0
  0
LINE
  5
8B
330
2
100
AcDbEntity
  8
OUTLINE
 62
     7
100
AcDbLine
 10
253.718665240078
 20
355.5520347046476
 30
0.0
 11
253.718665240078
 21
354.4391967046475
 31
0.0
  0
LINE
  5
8C
330
2
100
AcDbEntity
  8
OUTLINE
 62
     7
100
AcDbLine
 10
239.193971240078
 20
354.0952417046476
 30
0.0
 11
239.193971240078
 21
351.6682927046475
 31
0.0
  0
LINE
  5
8D
330
2
100
AcDbEntity
  8
OUTLINE
 62
     7
100
AcDbLine
 10
241.718665240078
 20
349.6982197046475
 30
0.0
 11
253.718665240078
 21
349.6982197046475
 31
0.0
  0
LINE
  5
8E
330
2
100
AcDbEntity
  8
OUTLINE
 62
     7
100
AcDbLine
 10
231.718665240078
 20
353.9391967046475
 30
0.0
 11
231.718665240078
 21
320.9391967046475
 31
0.0
  0
LINE
  5
8F
330
2
100
AcDbEntity
  8
OUTLINE
 62
     7
100
AcDbLine
 10
239.358665240078
 20
354.9391967046476
 30
0.0
 11
232.7186652400778
 21
354.9391967046476
 31
0.0
  0
LINE
  5
90
330
2
100
AcDbEntity
  8
OUTLINE
 62
     7
100
AcDbLine
 10
253.843523240078
 20
319.9391967046476
 30
0.0
 11
232.7186652400778
 21
319.9391967046476
 31
0.0
  0
LINE
  5
91
330
2
100
AcDbEntity
  8
OUTLINE
 62
     7
100
AcDbLine
 10
231.218665240078
 20
352.4392277046475
 30
0.0
 11
231.718665240078
 21
352.4392277046475
 31
0.0
  0
LINE
  5
92
330
2
100
AcDbEntity
  8
OUTLINE
 62
     7
100
AcDbLine
 10
231.218665240078
 20
354.9391967046476
 30
0.0
 11
231.218665240078
 21
319.9392047046476
 31
0.0
  0
LINE
  5
93
330
2
100
AcDbEntity
  8
OUTLINE
 62
     7
100
AcDbLine
 10
231.218665240078
 20
322.4391657046475
 30
0.0
 11
231.718665240078
 21
322.4391657046475
 31
0.0
  0
LINE
  5
94
330
2
100
AcDbEntity
  8
OUTLINE
 62
     7
100
AcDbLine
 10
225.206309240078
 20
354.9391927046475
 30
0.0
 11
227.7186702400781
 21
354.9391927046475
 31
0.0
  0
LINE
  5
95
330
2
100
AcDbEntity
  8
OUTLINE
 62
     7
100
AcDbLine
 10
227.7186702400781
 20
354.9391927046475
 30
0.0
 11
231.218665240078
 21
354.9391927046475
 31
0.0
  0
LINE
  5
96
330
2
100
AcDbEntity
  8
OUTLINE
 62
     7
100
AcDbLine
 10
227.7186702400781
 20
354.9391927046475
 30
0.0
 11
227.7186702400781
 21
319.9392077046474
 31
0.0
  0
LINE
  5
97
330
2
100
AcDbEntity
  8
OUTLINE
 62
     7
100
AcDbLine
 10
227.7186702400781
 20
319.9392027046474
 30
0.0
 11
225.2099182400778
 21
319.9391927046476
 31
0.0
  0
LINE
  5
98
330
2
100
AcDbEntity
  8
OUTLINE
 62
     7
100
AcDbLine
 10
231.218665240078
 20
319.9392047046476
 30
0.0
 11
227.7186702400781
 21
319.9391907046476
 31
0.0
  0
ARC
  5
99
330
2
100
AcDbEntity
  8
OUTLINE
 62
     7
100
AcDbCircle
 10
225.2186622400781
 20
317.4392077046474
 30
0.0
 40
2.5
100
AcDbArc
 50
89.99964999999734
 51
180.2001060000008
  0
ARC
  5
9A
330
2
100
AcDbEntity
  8
OUTLINE
 62
     7
100
AcDbCircle
 10
253.843523240078
 20
351.9391967046475
 30
0.0
 40
3.0
100
AcDbArc
 50
14.73720399999939
 51
51.99596699999775
  0
ARC
  5
9B
330
2
100
AcDbEntity
  8
OUTLINE
 62
     7
100
AcDbCircle
 10
253.843523240078
 20
351.9391967046475
 30
0.0
 40
3.0
100
AcDbArc
 50
14.73720399999939
 51
51.99596699999775
  0
ARC
  5
9C
330
2
100
AcDbEntity
  8
OUTLINE
 62
     7
100
AcDbCircle
 10
243.718665240078
 20
355.5520347046476
 30
0.0
 40
2.0
100
AcDbArc
 50
90.0
 51
180.0
  0
ARC
  5
9D
330
2
100
AcDbEntity
  8
OUTLINE
 62
     7
100
AcDbCircle
 10
243.718665240078
 20
354.4391967046475
 30
0.0
 40
2.0
100
AcDbArc
 50
180.0
 51
270.0
  0
ARC
  5
9E
330
2
100
AcDbEntity
  8
OUTLINE
 62
     7
100
AcDbCircle
 10
251.718665240078
 20
354.4391967046475
 30
0.0
 40
2.0
100
AcDbArc
 50
270.0
 51
0.0
  0
ARC
  5
9F
330
2
100
AcDbEntity
  8
OUTLINE
 62
     7
100
AcDbCircle
 10
251.718665240078
 20
355.5520347046476
 30
0.0
 40
2.0
100
AcDbArc
 50
0.0
 51
90.0
  0
ARC
  5
A0
330
2
100
AcDbEntity
  8
OUTLINE
 62
     7
100
AcDbCircle
 10
198.718665240078
 20
337.4391967046475
 30
0.0
 40
60.0
100
AcDbArc
 50
345.2627960000006
 51
353.2040760000012
  0
ARC
  5
A1
330
2
100
AcDbEntity
  8
OUTLINE
 62
     7
100
AcDbCircle
 10
198.718665240078
 20
337.4391967046475
 30
0.0
 40
60.0
100
AcDbArc
 50
6.795923999998762
 51
14.73720399999939
  0
ARC
  5
A2
330
2
100
AcDbEntity
  8
OUTLINE
 62
     7
100
AcDbCircle
 10
253.843523240078
 20
322.9391967046475
 30
0.0
 40
3.0
100
AcDbArc
 50
270.0
 51
345.2627960000006
  0
ARC
  5
A3
330
2
100
AcDbEntity
  8
OUTLINE
 62
     7
100
AcDbCircle
 10
232.7186652400778
 20
353.9391967046475
 30
0.0
 40
1.0
100
AcDbArc
 50
90.0
 51
180.0
  0
ARC
  5
A4
330
2
100
AcDbEntity
  8
OUTLINE
 62
     7
100
AcDbCircle
 10
232.7186652400778
 20
320.9391967046475
 30
0.0
 40
1.0
100
AcDbArc
 50
180.0
 51
270.0
  0
ARC
  5
A5
330
2
100
AcDbEntity
  8
OUTLINE
 62
     7
100
AcDbCircle
 10
224.0042542400781
 20
337.4391967046475
 30
0.0
 40
35.0
100
AcDbArc
 50
348.4630409999999
 51
11.53700999999961
  0
ARC
  5
A6
330
2
100
AcDbEntity
  8
OUTLINE
 62
     7
100
AcDbCircle
 10
225.2186622400781
 20
357.4391627046475
 30
0.0
 40
2.5
100
AcDbArc
 50
179.7998169999978
 51
270.2831020000003
  0
LWPOLYLINE
  5
A7
330
2
100
AcDbEntity
  8
OUTLINE
 62
     7
100
AcDbPolyline
 90
       91
 70
     0
 43
0.0
 10
243.718665240078
 20
357.5520347046476
 10
243.668135240078
 20
357.5470917046475
 10
243.617613240078
 20
357.5421357046475
 10
243.5671052400781
 20
357.5371517046475
 10
243.5166212400779
 20
357.5321277046476
 10
243.466167240078
 20
357.5270497046476
 10
243.4157512400779
 20
357.5219047046476
 10
243.365380240078
 20
357.5166787046475
 10
243.315062240078
 20
357.5113587046475
 10
243.264805240078
 20
357.5059317046476
 10
243.2146162400781
 20
357.5003827046475
 10
243.1645032400779
 20
357.4946997046475
 10
243.1144732400778
 20
357.4888687046475
 10
243.0645352400778
 20
357.4828757046475
 10
243.0146942400778
 20
357.4767087046475
 10
242.9649602400779
 20
357.4703527046476
 10
242.915340240078
 20
357.4637957046476
 10
242.865841240078
 20
357.4570227046474
 10
242.816471240078
 20
357.4500217046476
 10
242.767237240078
 20
357.4427787046476
 10
242.7181472400779
 20
357.4352797046476
 10
242.6692092400779
 20
357.4275117046476
 10
242.620430240078
 20
357.4194617046476
 10
242.571818240078
 20
357.4111157046476
 10
242.523380240078
 20
357.4024607046475
 10
242.4751242400779
 20
357.3934827046475
 10
242.427057240078
 20
357.3841687046475
 10
242.379188240078
 20
357.3745047046476
 10
242.3315232400779
 20
357.3644777046475
 10
242.284071240078
 20
357.3540747046475
 10
242.236838240078
 20
357.3432807046476
 10
242.189829240078
 20
357.3320797046475
 10
242.1430312400778
 20
357.3204347046476
 10
242.096430240078
 20
357.3083067046475
 10
242.050008240078
 20
357.2956547046475
 10
242.0037512400781
 20
357.2824407046475
 10
241.9576422400779
 20
357.2686217046476
 10
241.9116652400778
 20
357.2541607046475
 10
241.8658062400779
 20
357.2390157046476
 10
241.820048240078
 20
357.2231477046476
 10
241.774375240078
 20
357.2065177046475
 10
241.728772240078
 20
357.1890837046475
 10
241.683222240078
 20
357.1708067046476
 10
241.6377102400779
 20
357.1516467046476
 10
241.592221240078
 20
357.1315637046475
 10
241.546738240078
 20
357.1105187046475
 10
241.501246240078
 20
357.0884697046476
 10
241.4557282400779
 20
357.0653787046475
 10
241.4101702400781
 20
357.0412057046476
 10
241.364555240078
 20
357.0159087046476
 10
241.318867240078
 20
356.9894497046476
 10
241.273092240078
 20
356.9617887046475
 10
241.227212240078
 20
356.9328837046476
 10
241.181212240078
 20
356.9026977046474
 10
241.1350762400779
 20
356.8711887046475
 10
241.088790240078
 20
356.8383177046476
 10
241.0423362400778
 20
356.8040437046476
 10
240.9956992400779
 20
356.7683287046475
 10
240.9488632400779
 20
356.7311307046475
 10
240.901812240078
 20
356.6924097046476
 10
240.8545322400779
 20
356.6521277046476
 10
240.807009240078
 20
356.6102587046476
 10
240.7592482400779
 20
356.5668417046475
 10
240.711258240078
 20
356.5219287046474
 10
240.663046240078
 20
356.4755737046476
 10
240.614621240078
 20
356.4278307046476
 10
240.565991240078
 20
356.3787527046475
 10
240.5171632400779
 20
356.3283927046475
 10
240.4681472400779
 20
356.2768037046475
 10
240.418951240078
 20
356.2240407046476
 10
240.369582240078
 20
356.1701557046475
 10
240.320050240078
 20
356.1152037046475
 10
240.270361240078
 20
356.0592357046476
 10
240.220525240078
 20
356.0023067046476
 10
240.1705492400779
 20
355.9444707046476
 10
240.120442240078
 20
355.8857797046475
 10
240.070212240078
 20
355.8262877046475
 10
240.0198672400779
 20
355.7660477046475
 10
239.969416240078
 20
355.7051137046475
 10
239.918866240078
 20
355.6435387046476
 10
239.868226240078
 20
355.5813767046476
 10
239.817503240078
 20
355.5186807046475
 10
239.766707240078
 20
355.4555037046475
 10
239.715846240078
 20
355.3918997046475
 10
239.664926240078
 20
355.3279217046476
 10
239.613958240078
 20
355.2636237046476
 10
239.562949240078
 20
355.1990587046475
 10
239.5119072400778
 20
355.1342797046476
 10
239.4608402400778
 20
355.0693417046475
 10
239.409757240078
 20
355.0042957046475
 10
239.358665240078
 20
354.9391967046476
  0
LWPOLYLINE
  5
A8
330
2
100
AcDbEntity
  8
OUTLINE
 62
     7
100
AcDbPolyline
 90
       31
 70
     0
 43
0.0
 10
255.6906742400779
 20
354.3030987046476
 10
255.701296240078
 20
354.2689527046475
 10
255.7119132400778
 20
354.2348107046476
 10
255.7225202400779
 20
354.2006807046476
 10
255.733113240078
 20
354.1665677046476
 10
255.743686240078
 20
354.1324757046476
 10
255.7542352400778
 20
354.0984117046476
 10
255.764754240078
 20
354.0643817046476
 10
255.7752402400779
 20
354.0303897046475
 10
255.7856862400778
 20
353.9964417046476
 10
255.7960892400779
 20
353.9625437046475
 10
255.8064432400779
 20
353.9287017046476
 10
255.8167432400778
 20
353.8949197046475
 10
255.826985240078
 20
353.8612047046476
 10
255.837164240078
 20
353.8275607046476
 10
255.847274240078
 20
353.7939947046476
 10
255.8573112400778
 20
353.7605107046475
 10
255.8672712400781
 20
353.7271167046475
 10
255.877148240078
 20
353.6938157046475
 10
255.886937240078
 20
353.6606137046475
 10
255.896633240078
 20
353.6275177046475
 10
255.9062322400778
 20
353.5945317046476
 10
255.9157292400779
 20
353.5616627046475
 10
255.9251192400779
 20
353.5289147046476
 10
255.934396240078
 20
353.4962937046476
 10
255.9435572400778
 20
353.4638047046476
 10
255.9525962400781
 20
353.4314547046475
 10
255.961508240078
 20
353.3992487046476
 10
255.970289240078
 20
353.3671917046476
 10
255.978934240078
 20
353.3352897046476
 10
255.9874372400781
 20
353.3035477046476
  0
LWPOLYLINE
  5
A9
330
2
100
AcDbEntity
  8
OUTLINE
 62
     7
100
AcDbPolyline
 90
       91
 70
     0
 43
0.0
 10
251.718665240078
 20
357.5520347046476
 10
251.778443240078
 20
357.5486317046476
 10
251.8382152400779
 20
357.5451737046476
 10
251.8979762400778
 20
357.5416067046476
 10
251.957719240078
 20
357.5378777046476
 10
252.0174402400778
 20
357.5339307046474
 10
252.077131240078
 20
357.5297127046475
 10
252.136789240078
 20
357.5251687046476
 10
252.196406240078
 20
357.5202447046476
 10
252.2559772400779
 20
357.5148867046475
 10
252.315496240078
 20
357.5090397046476
 10
252.374958240078
 20
357.5026497046475
 10
252.434357240078
 20
357.4956627046475
 10
252.4936872400779
 20
357.4880247046475
 10
252.552942240078
 20
357.4796797046476
 10
252.612117240078
 20
357.4705757046476
 10
252.671205240078
 20
357.4606577046476
 10
252.7302022400778
 20
357.4498697046475
 10
252.7891012400779
 20
357.4381597046476
 10
252.847897240078
 20
357.4254727046475
 10
252.906584240078
 20
357.4117537046475
 10
252.965156240078
 20
357.3969497046475
 10
253.0236072400779
 20
357.3810057046475
 10
253.0819322400779
 20
357.3638667046476
 10
253.140125240078
 20
357.3454797046475
 10
253.198180240078
 20
357.3257887046476
 10
253.2560912400779
 20
357.3047417046475
 10
253.313854240078
 20
357.2822827046475
 10
253.3714612400779
 20
357.2583587046476
 10
253.4289072400778
 20
357.2329137046476
 10
253.4861872400781
 20
357.2058947046476
 10
253.5432902400779
 20
357.1772647046476
 10
253.600187240078
 20
357.1470577046476
 10
253.656843240078
 20
357.1153247046475
 10
253.7132252400779
 20
357.0821167046476
 10
253.769298240078
 20
357.0474857046476
 10
253.8250282400778
 20
357.0114827046475
 10
253.880381240078
 20
356.9741597046476
 10
253.9353242400779
 20
356.9355677046476
 10
253.989822240078
 20
356.8957577046475
 10
254.043841240078
 20
356.8547807046475
 10
254.097347240078
 20
356.8126897046476
 10
254.150306240078
 20
356.7695337046476
 10
254.2026842400779
 20
356.7253667046476
 10
254.254446240078
 20
356.6802377046475
 10
254.3055592400779
 20
356.6341997046476
 10
254.355989240078
 20
356.5873037046475
 10
254.4057012400779
 20
356.5396007046476
 10
254.454662240078
 20
356.4911417046475
 10
254.502838240078
 20
356.4419787046475
 10
254.550193240078
 20
356.3921637046476
 10
254.596695240078
 20
356.3417467046476
 10
254.642310240078
 20
356.2907797046475
 10
254.687002240078
 20
356.2393137046476
 10
254.7307392400778
 20
356.1874007046475
 10
254.7734852400779
 20
356.1350917046476
 10
254.815208240078
 20
356.0824387046475
 10
254.8558722400779
 20
356.0294917046476
 10
254.895444240078
 20
355.9763027046475
 10
254.9338902400779
 20
355.9229237046475
 10
254.971176240078
 20
355.8694047046476
 10
255.007279240078
 20
355.8157907046476
 10
255.042228240078
 20
355.7620917046476
 10
255.076062240078
 20
355.7083107046476
 10
255.108821240078
 20
355.6544497046475
 10
255.1405452400781
 20
355.6005137046476
 10
255.1712742400779
 20
355.5465037046475
 10
255.2010472400779
 20
355.4924237046475
 10
255.229904240078
 20
355.4382757046476
 10
255.257885240078
 20
355.3840637046476
 10
255.285030240078
 20
355.3297907046476
 10
255.311379240078
 20
355.2754587046475
 10
255.336972240078
 20
355.2210707046476
 10
255.361847240078
 20
355.1666307046474
 10
255.3860462400781
 20
355.1121407046475
 10
255.4096082400779
 20
355.0576037046476
 10
255.4325732400779
 20
355.0030227046476
 10
255.4549802400778
 20
354.9484007046476
 10
255.4768702400779
 20
354.8937407046476
 10
255.498282240078
 20
354.8390457046476
 10
255.519256240078
 20
354.7843177046476
 10
255.5398322400778
 20
354.7295617046476
 10
255.560050240078
 20
354.6747787046474
 10
255.5799492400779
 20
354.6199717046476
 10
255.599570240078
 20
354.5651447046476
 10
255.618951240078
 20
354.5103007046475
 10
255.638134240078
 20
354.4554417046476
 10
255.657157240078
 20
354.4005707046475
 10
255.676061240078
 20
354.3456917046476
 10
255.6948852400779
 20
354.2908057046476
 10
255.713670240078
 20
354.2359177046475
  0
LWPOLYLINE
  5
AA
330
2
100
AcDbEntity
  8
OUTLINE
 62
     7
100
AcDbPolyline
 90
       61
 70
     0
 43
0.0
 10
241.718665240078
 20
352.4391967046476
 10
241.6854402400779
 20
352.4254167046476
 10
241.652201240078
 20
352.4116017046476
 10
241.618934240078
 20
352.3977187046476
 10
241.5856272400779
 20
352.3837307046475
 10
241.552266240078
 20
352.3696057046476
 10
241.5188362400778
 20
352.3553077046476
 10
241.4853252400781
 20
352.3408017046475
 10
241.451719240078
 20
352.3260547046476
 10
241.418003240078
 20
352.3110307046475
 10
241.384166240078
 20
352.2956967046475
 10
241.3501922400778
 20
352.2800167046476
 10
241.3160692400778
 20
352.2639567046476
 10
241.2817832400779
 20
352.2474827046476
 10
241.2473192400779
 20
352.2305597046476
 10
241.212666240078
 20
352.2131527046476
 10
241.1778082400779
 20
352.1952277046476
 10
241.1427332400779
 20
352.1767497046476
 10
241.107427240078
 20
352.1576857046476
 10
241.0718762400779
 20
352.1379987046476
 10
241.036066240078
 20
352.1176567046475
 10
240.999985240078
 20
352.0966227046475
 10
240.963617240078
 20
352.0748647046476
 10
240.926951240078
 20
352.0523457046476
 10
240.8899722400779
 20
352.0290327046475
 10
240.852667240078
 20
352.0048917046476
 10
240.815021240078
 20
351.9798857046475
 10
240.777022240078
 20
351.9539827046476
 10
240.7386562400779
 20
351.9271477046475
 10
240.699909240078
 20
351.8993447046476
 10
240.660767240078
 20
351.8705397046476
 10
240.6212232400779
 20
351.8407107046476
 10
240.581283240078
 20
351.8098807046476
 10
240.540963240078
 20
351.7780827046475
 10
240.5002762400779
 20
351.7453527046475
 10
240.459235240078
 20
351.7117247046475
 10
240.417854240078
 20
351.6772327046475
 10
240.3761472400779
 20
351.6419127046475
 10
240.3341272400778
 20
351.6057977046475
 10
240.291808240078
 20
351.5689227046475
 10
240.2492032400779
 20
351.5313227046475
 10
240.206327240078
 20
351.4930317046475
 10
240.163191240078
 20
351.4540847046475
 10
240.119812240078
 20
351.4145157046476
 10
240.0762002400781
 20
351.3743597046476
 10
240.032372240078
 20
351.3336507046476
 10
239.988339240078
 20
351.2924247046475
 10
239.944116240078
 20
351.2507147046475
 10
239.899716240078
 20
351.2085557046475
 10
239.8551532400778
 20
351.1659817046476
 10
239.8104402400778
 20
351.1230287046476
 10
239.765592240078
 20
351.0797297046476
 10
239.720621240078
 20
351.0361197046476
 10
239.675541240078
 20
350.9922337046476
 10
239.630366240078
 20
350.9481067046475
 10
239.5851092400778
 20
350.9037717046475
 10
239.539785240078
 20
350.8592647046476
 10
239.494406240078
 20
350.8146187046476
 10
239.448986240078
 20
350.7698697046476
 10
239.403539240078
 20
350.7250517046475
 10
239.3580792400781
 20
350.6801987046475
  0
LWPOLYLINE
  5
AB
330
2
100
AcDbEntity
  8
OUTLINE
 62
     7
100
AcDbPolyline
 90
       61
 70
     0
 43
0.0
 10
253.718665240078
 20
352.4391967046476
 10
253.7518912400781
 20
352.4254167046476
 10
253.7851302400778
 20
352.4116017046476
 10
253.818396240078
 20
352.3977187046476
 10
253.8517032400779
 20
352.3837307046475
 10
253.8850652400778
 20
352.3696057046476
 10
253.918494240078
 20
352.3553077046476
 10
253.952005240078
 20
352.3408017046475
 10
253.985612240078
 20
352.3260547046476
 10
254.019327240078
 20
352.3110307046475
 10
254.053164240078
 20
352.2956967046475
 10
254.087138240078
 20
352.2800167046476
 10
254.121261240078
 20
352.2639567046476
 10
254.1555482400779
 20
352.2474827046476
 10
254.190011240078
 20
352.2305597046476
 10
254.2246642400778
 20
352.2131527046476
 10
254.259522240078
 20
352.1952277046476
 10
254.294597240078
 20
352.1767497046476
 10
254.3299032400779
 20
352.1576857046476
 10
254.365455240078
 20
352.1379987046476
 10
254.4012642400779
 20
352.1176567046475
 10
254.437346240078
 20
352.0966227046475
 10
254.4737132400781
 20
352.0748647046476
 10
254.510379240078
 20
352.0523457046476
 10
254.547358240078
 20
352.0290327046475
 10
254.5846642400778
 20
352.0048917046476
 10
254.6223092400781
 20
351.9798857046475
 10
254.6603082400781
 20
351.9539827046476
 10
254.6986742400779
 20
351.9271477046475
 10
254.737421240078
 20
351.8993447046476
 10
254.776563240078
 20
351.8705397046476
 10
254.816108240078
 20
351.8407107046476
 10
254.8560472400779
 20
351.8098807046476
 10
254.896367240078
 20
351.7780827046475
 10
254.937054240078
 20
351.7453527046475
 10
254.978095240078
 20
351.7117247046475
 10
255.019476240078
 20
351.6772327046475
 10
255.061183240078
 20
351.6419127046475
 10
255.103203240078
 20
351.6057977046475
 10
255.145522240078
 20
351.5689227046475
 10
255.188127240078
 20
351.5313227046475
 10
255.231004240078
 20
351.4930317046475
 10
255.274139240078
 20
351.4540847046475
 10
255.3175192400778
 20
351.4145157046476
 10
255.361130240078
 20
351.3743597046476
 10
255.4049592400779
 20
351.3336507046476
 10
255.448991240078
 20
351.2924247046475
 10
255.4932142400779
 20
351.2507147046475
 10
255.5376142400779
 20
351.2085557046475
 10
255.582177240078
 20
351.1659817046476
 10
255.626890240078
 20
351.1230287046476
 10
255.671739240078
 20
351.0797297046476
 10
255.716710240078
 20
351.0361197046476
 10
255.7617892400779
 20
350.9922337046476
 10
255.806964240078
 20
350.9481067046475
 10
255.852221240078
 20
350.9037717046475
 10
255.897546240078
 20
350.8592647046476
 10
255.942925240078
 20
350.8146187046476
 10
255.988344240078
 20
350.7698697046476
 10
256.033791240078
 20
350.7250517046475
 10
256.079252240078
 20
350.6801987046475
  0
LWPOLYLINE
  5
AC
330
2
100
AcDbEntity
  8
OUTLINE
 62
     7
100
AcDbPolyline
 90
        9
 70
     0
 43
0.0
 10
212.401163240078
 20
337.4391967046475
 10
212.6338702400781
 20
334.4003567046476
 10
213.3249212400779
 20
331.4538497046474
 10
214.4533192400778
 20
328.6892047046474
 10
215.984778240078
 20
326.1904237046474
 10
217.8727642400779
 20
324.0334307046474
 10
220.059914240078
 20
322.2837657046476
 10
222.479771240078
 20
320.9945897046476
 10
222.614913240078
 20
320.9392117046474
  0
LWPOLYLINE
  5
AD
330
2
100
AcDbEntity
  8
OUTLINE
 62
     7
100
AcDbPolyline
 90
        9
 70
     0
 43
0.0
 10
222.614913240078
 20
353.9391817046475
 10
220.1845862400778
 20
352.6759757046476
 10
217.983179240078
 20
350.9498087046476
 10
216.077579240078
 20
348.8131277046475
 10
214.525687240078
 20
346.3308567046476
 10
213.374658240078
 20
343.5784157046476
 10
212.6594642400779
 20
340.6394387046475
 10
212.401836240078
 20
337.6032237046476
 10
212.401163240078
 20
337.4391967046475
  0
LINE
  5
AE
330
2
100
AcDbEntity
  8
OUTLINE
 62
     7
100
AcDbLine
 10
182.718665240078
 20
385.6891957046475
 30
0.0
 11
182.718665240078
 21
489.5374627046476
 31
0.0
  0
LINE
  5
AF
330
2
100
AcDbEntity
  8
OUTLINE
 62
     7
100
AcDbLine
 10
210.718665240078
 20
489.5374627046476
 30
0.0
 11
210.718665240078
 21
385.6891957046475
 31
0.0
  0
LINE
  5
B0
330
2
100
AcDbEntity
  8
OUTLINE
 62
     7
100
AcDbLine
 10
170.7186652400779
 20
404.9391967046475
 30
0.0
 11
170.7186652400779
 21
366.4391967046475
 31
0.0
  0
LWPOLYLINE
  5
B1
330
2
100
AcDbEntity
  8
OUTLINE
 62
     7
100
AcDbPolyline
 90
       19
 70
     0
 43
0.0
 10
182.7186652400778
 20
385.6891957046475
 10
182.9313572400779
 20
382.6649327046475
 10
183.562968240078
 20
379.7325607046476
 10
184.594309240078
 20
376.9811777046476
 10
185.994043240078
 20
374.4943837046475
 10
187.719639240078
 20
372.3477387046476
 10
189.718665240078
 20
370.6064667046475
 10
191.930383240078
 20
369.3234757046476
 10
194.2875912400779
 20
368.5377487046475
 10
196.718665240078
 20
368.2731597046475
 10
199.1497402400779
 20
368.5377487046475
 10
201.5069472400778
 20
369.3234757046476
 10
203.7186652400778
 20
370.6064667046475
 10
205.717692240078
 20
372.3477387046476
 10
207.4432872400779
 20
374.4943837046475
 10
208.8430212400779
 20
376.9811777046476
 10
209.874362240078
 20
379.7325607046476
 10
210.5059742400778
 20
382.6649327046475
 10
210.718665240078
 20
385.6891957046475
  0
LINE
  5
B2
330
2
100
AcDbEntity
  8
OUTLINE
 62
     7
100
AcDbLine
 10
170.7186652400779
 20
366.4391967046475
 30
0.0
 11
222.718665240078
 21
366.4391967046475
 31
0.0
  0
LINE
  5
B3
330
2
100
AcDbEntity
  8
OUTLINE
 62
     7
100
AcDbLine
 10
170.7186652400779
 20
365.4391967046476
 30
0.0
 11
222.718665240078
 21
365.4391967046476
 31
0.0
  0
LWPOLYLINE
  5
B4
330
2
100
AcDbEntity
  8
OUTLINE
 62
     7
100
AcDbPolyline
 90
       36
 70
     1
 43
0.0
 10
223.918665240078
 20
494.5707937046476
 10
223.505436240078
 20
495.5902277046475
 10
222.2783042400779
 20
496.5786867046475
 10
220.2745562400779
 20
497.5061377046475
 10
217.5550742400778
 20
498.3443987046475
 10
214.202488240078
 20
499.0680007046476
 10
210.318665240078
 20
499.6549577046476
 10
206.021613240078
 20
500.0874347046475
 10
201.441896240078
 20
500.3522917046475
 10
196.718665240078
 20
500.4414807046475
 10
191.995435240078
 20
500.3522917046475
 10
187.4157172400781
 20
500.0874347046475
 10
183.1186652400779
 20
499.6549577046476
 10
179.234842240078
 20
499.0680007046476
 10
175.882256240078
 20
498.3443987046475
 10
173.162774240078
 20
497.5061377046475
 10
171.1590262400779
 20
496.5786867046475
 10
169.9318942400779
 20
495.5902277046475
 10
169.5186652400779
 20
494.5707937046476
 10
169.9318942400779
 20
493.5513597046476
 10
171.1590262400779
 20
492.5629007046476
 10
173.162774240078
 20
491.6354507046476
 10
175.882256240078
 20
490.7971897046476
 10
179.234842240078
 20
490.0735877046476
 10
183.1186652400779
 20
489.4866307046476
 10
187.4157172400781
 20
489.0541537046476
 10
191.995435240078
 20
488.7892967046475
 10
196.718665240078
 20
488.7001077046475
 10
201.441896240078
 20
488.7892967046475
 10
206.021613240078
 20
489.0541537046476
 10
210.318665240078
 20
489.4866307046476
 10
214.202488240078
 20
490.0735877046476
 10
217.5550742400778
 20
490.7971897046476
 10
220.2745562400779
 20
491.6354507046476
 10
222.2783042400779
 20
492.5629007046476
 10
223.505436240078
 20
493.5513597046476
  0
LWPOLYLINE
  5
B5
330
2
100
AcDbEntity
  8
OUTLINE
 62
     7
100
AcDbPolyline
 90
       36
 70
     1
 43
0.0
 10
169.5186652400779
 20
494.5707937046476
 10
169.9318942400779
 20
493.5513597046476
 10
171.1590262400779
 20
492.5629007046476
 10
173.162774240078
 20
491.6354507046476
 10
175.882256240078
 20
490.7971897046476
 10
179.234842240078
 20
490.0735877046476
 10
183.1186652400779
 20
489.4866307046476
 10
187.4157172400781
 20
489.0541537046476
 10
191.995435240078
 20
488.7892967046475
 10
196.718665240078
 20
488.7001077046475
 10
201.441896240078
 20
488.7892967046475
 10
206.021613240078
 20
489.0541537046476
 10
210.318665240078
 20
489.4866307046476
 10
214.202488240078
 20
490.0735877046476
 10
217.5550742400778
 20
490.7971897046476
 10
220.2745562400779
 20
491.6354507046476
 10
222.2783042400779
 20
492.5629007046476
 10
223.505436240078
 20
493.5513597046476
 10
223.918665240078
 20
494.5707937046476
 10
223.505436240078
 20
495.5902277046475
 10
222.2783042400779
 20
496.5786867046475
 10
220.2745562400779
 20
497.5061377046475
 10
217.5550742400778
 20
498.3443987046475
 10
214.202488240078
 20
499.0680007046476
 10
210.318665240078
 20
499.6549577046476
 10
206.021613240078
 20
500.0874347046475
 10
201.441896240078
 20
500.3522917046475
 10
196.718665240078
 20
500.4414807046475
 10
191.995435240078
 20
500.3522917046475
 10
187.4157172400781
 20
500.0874347046475
 10
183.1186652400779
 20
499.6549577046476
 10
179.234842240078
 20
499.0680007046476
 10
175.882256240078
 20
498.3443987046475
 10
173.162774240078
 20
497.5061377046475
 10
171.1590262400779
 20
496.5786867046475
 10
169.9318942400779
 20
495.5902277046475
  0
LWPOLYLINE
  5
B6
330
2
100
AcDbEntity
  8
OUTLINE
 62
     7
100
AcDbPolyline
 90
       36
 70
     1
 43
0.0
 10
187.513122240078
 20
497.0109717046475
 10
187.4713432400779
 20
497.1184607046475
 10
187.3472772400779
 20
497.2226827046475
 10
187.144692240078
 20
497.3204717046476
 10
186.8697442400778
 20
497.4088577046475
 10
186.5307882400779
 20
497.4851537046474
 10
186.138122240078
 20
497.5470417046476
 10
185.7036772400778
 20
497.5926417046474
 10
185.240654240078
 20
497.6205677046475
 10
184.763122240078
 20
497.6299717046475
 10
184.2855892400779
 20
497.6205677046475
 10
183.8225672400779
 20
497.5926417046474
 10
183.388122240078
 20
497.5470417046476
 10
182.995456240078
 20
497.4851537046474
 10
182.656500240078
 20
497.4088577046475
 10
182.381552240078
 20
497.3204717046476
 10
182.178967240078
 20
497.2226827046475
 10
182.0549012400778
 20
497.1184607046475
 10
182.013122240078
 20
497.0109717046475
 10
182.0549012400778
 20
496.9034837046477
 10
182.178967240078
 20
496.7992617046474
 10
182.381552240078
 20
496.7014717046476
 10
182.656500240078
 20
496.6130867046476
 10
182.995456240078
 20
496.5367907046476
 10
183.388122240078
 20
496.4749027046475
 10
183.8225672400779
 20
496.4293027046476
 10
184.2855892400779
 20
496.4013757046475
 10
184.763122240078
 20
496.3919717046476
 10
185.240654240078
 20
496.4013757046475
 10
185.7036772400778
 20
496.4293027046476
 10
186.138122240078
 20
496.4749027046475
 10
186.5307882400779
 20
496.5367907046476
 10
186.8697442400778
 20
496.6130867046476
 10
187.144692240078
 20
496.7014717046476
 10
187.3472772400779
 20
496.7992617046474
 10
187.4713432400779
 20
496.9034837046477
  0
LWPOLYLINE
  5
B7
330
2
100
AcDbEntity
  8
OUTLINE
 62
     7
100
AcDbPolyline
 90
       36
 70
     1
 43
0.0
 10
187.513122240078
 20
492.1306157046475
 10
187.4713432400779
 20
492.2381037046475
 10
187.3472772400779
 20
492.3423267046476
 10
187.144692240078
 20
492.4401157046474
 10
186.8697442400778
 20
492.5285017046475
 10
186.5307882400779
 20
492.6047977046476
 10
186.138122240078
 20
492.6666857046475
 10
185.7036772400778
 20
492.7122857046477
 10
185.240654240078
 20
492.7402117046476
 10
184.763122240078
 20
492.7496157046475
 10
184.2855892400779
 20
492.7402117046476
 10
183.8225672400779
 20
492.7122857046477
 10
183.388122240078
 20
492.6666857046475
 10
182.995456240078
 20
492.6047977046476
 10
182.656500240078
 20
492.5285017046475
 10
182.381552240078
 20
492.4401157046474
 10
182.178967240078
 20
492.3423267046476
 10
182.0549012400778
 20
492.2381037046475
 10
182.013122240078
 20
492.1306157046475
 10
182.0549012400778
 20
492.0231277046475
 10
182.178967240078
 20
491.9189057046476
 10
182.381552240078
 20
491.8211157046475
 10
182.656500240078
 20
491.7327307046475
 10
182.995456240078
 20
491.6564347046476
 10
183.388122240078
 20
491.5945457046475
 10
183.8225672400779
 20
491.5489457046476
 10
184.2855892400779
 20
491.5210197046476
 10
184.763122240078
 20
491.5116157046475
 10
185.240654240078
 20
491.5210197046476
 10
185.7036772400778
 20
491.5489457046476
 10
186.138122240078
 20
491.5945457046475
 10
186.5307882400779
 20
491.6564347046476
 10
186.8697442400778
 20
491.7327307046475
 10
187.144692240078
 20
491.8211157046475
 10
187.3472772400779
 20
491.9189057046476
 10
187.4713432400779
 20
492.0231277046475
  0
LWPOLYLINE
  5
B8
330
2
100
AcDbEntity
  8
OUTLINE
 62
     7
100
AcDbPolyline
 90
       36
 70
     1
 43
0.0
 10
187.513122240078
 20
492.1306157046475
 10
187.4713432400779
 20
492.2381037046475
 10
187.3472772400779
 20
492.3423267046476
 10
187.144692240078
 20
492.4401157046474
 10
186.8697442400778
 20
492.5285017046475
 10
186.5307882400779
 20
492.6047977046476
 10
186.138122240078
 20
492.6666857046475
 10
185.7036772400778
 20
492.7122857046477
 10
185.240654240078
 20
492.7402117046476
 10
184.763122240078
 20
492.7496157046475
 10
184.2855892400779
 20
492.7402117046476
 10
183.8225672400779
 20
492.7122857046477
 10
183.388122240078
 20
492.6666857046475
 10
182.995456240078
 20
492.6047977046476
 10
182.656500240078
 20
492.5285017046475
 10
182.381552240078
 20
492.4401157046474
 10
182.178967240078
 20
492.3423267046476
 10
182.0549012400778
 20
492.2381037046475
 10
182.013122240078
 20
492.1306157046475
 10
182.0549012400778
 20
492.0231277046475
 10
182.178967240078
 20
491.9189057046476
 10
182.381552240078
 20
491.8211157046475
 10
182.656500240078
 20
491.7327307046475
 10
182.995456240078
 20
491.6564347046476
 10
183.388122240078
 20
491.5945457046475
 10
183.8225672400779
 20
491.5489457046476
 10
184.2855892400779
 20
491.5210197046476
 10
184.763122240078
 20
491.5116157046475
 10
185.240654240078
 20
491.5210197046476
 10
185.7036772400778
 20
491.5489457046476
 10
186.138122240078
 20
491.5945457046475
 10
186.5307882400779
 20
491.6564347046476
 10
186.8697442400778
 20
491.7327307046475
 10
187.144692240078
 20
491.8211157046475
 10
187.3472772400779
 20
491.9189057046476
 10
187.4713432400779
 20
492.0231277046475
  0
LWPOLYLINE
  5
B9
330
2
100
AcDbEntity
  8
OUTLINE
 62
     7
100
AcDbPolyline
 90
       36
 70
     1
 43
0.0
 10
187.513122240078
 20
497.0109717046475
 10
187.4713432400779
 20
497.1184607046475
 10
187.3472772400779
 20
497.2226827046475
 10
187.144692240078
 20
497.3204717046476
 10
186.8697442400778
 20
497.4088577046475
 10
186.5307882400779
 20
497.4851537046474
 10
186.138122240078
 20
497.5470417046476
 10
185.7036772400778
 20
497.5926417046474
 10
185.240654240078
 20
497.6205677046475
 10
184.763122240078
 20
497.6299717046475
 10
184.2855892400779
 20
497.6205677046475
 10
183.8225672400779
 20
497.5926417046474
 10
183.388122240078
 20
497.5470417046476
 10
182.995456240078
 20
497.4851537046474
 10
182.656500240078
 20
497.4088577046475
 10
182.381552240078
 20
497.3204717046476
 10
182.178967240078
 20
497.2226827046475
 10
182.0549012400778
 20
497.1184607046475
 10
182.013122240078
 20
497.0109717046475
 10
182.0549012400778
 20
496.9034837046477
 10
182.178967240078
 20
496.7992617046474
 10
182.381552240078
 20
496.7014717046476
 10
182.656500240078
 20
496.6130867046476
 10
182.995456240078
 20
496.5367907046476
 10
183.388122240078
 20
496.4749027046475
 10
183.8225672400779
 20
496.4293027046476
 10
184.2855892400779
 20
496.4013757046475
 10
184.763122240078
 20
496.3919717046476
 10
185.240654240078
 20
496.4013757046475
 10
185.7036772400778
 20
496.4293027046476
 10
186.138122240078
 20
496.4749027046475
 10
186.5307882400779
 20
496.5367907046476
 10
186.8697442400778
 20
496.6130867046476
 10
187.144692240078
 20
496.7014717046476
 10
187.3472772400779
 20
496.7992617046474
 10
187.4713432400779
 20
496.9034837046477
  0
ARC
  5
BA
330
2
100
AcDbEntity
  8
OUTLINE
 62
     7
100
AcDbCircle
 10
185.718665240078
 20
533.9756577046475
 30
0.0
 40
0.5
100
AcDbArc
 50
90.0
 51
180.0
  0
LINE
  5
BB
330
2
100
AcDbEntity
  8
OUTLINE
 62
     7
100
AcDbLine
 10
186.718665240078
 20
535.9756577046475
 30
0.0
 11
182.218665240078
 21
535.9756577046475
 31
0.0
  0
LWPOLYLINE
  5
BC
330
2
100
AcDbEntity
  8
OUTLINE
 62
     7
100
AcDbPolyline
 90
       19
 70
     0
 43
0.0
 10
227.7186652400778
 20
520.5006137046475
 10
227.247705240078
 20
521.7118177046476
 10
225.849136240078
 20
522.8862187046473
 10
223.5654532400778
 20
523.9881347046475
 10
220.466043240078
 20
524.9840847046475
 10
216.645081240078
 20
525.8438067046474
 10
212.218665240078
 20
526.5411777046475
 10
207.3212902400778
 20
527.0550097046475
 10
202.101759240078
 20
527.3696897046475
 10
196.718665240078
 20
527.4756557046474
 10
191.335572240078
 20
527.3696897046475
 10
186.1160412400781
 20
527.0550097046475
 10
181.2186652400778
 20
526.5411777046475
 10
176.7922492400779
 20
525.8438067046474
 10
172.971287240078
 20
524.9840847046475
 10
169.8718782400779
 20
523.9881347046475
 10
167.588194240078
 20
522.8862187046473
 10
166.1896252400779
 20
521.7118177046476
 10
165.7186652400779
 20
520.5006137046475
  0
LWPOLYLINE
  5
BD
330
2
100
AcDbEntity
  8
OUTLINE
 62
     7
100
AcDbPolyline
 90
        8
 70
     0
 43
0.0
 10
209.7186652400778
 20
548.5750667046476
 10
205.8823542400781
 20
548.9284727046475
 10
201.7676082400781
 20
549.1550967046475
 10
197.499453240078
 20
549.2480537046476
 10
193.207574240078
 20
549.2045187046476
 10
189.022377240078
 20
549.0258137046476
 10
185.071029240078
 20
548.7173687046476
 10
183.7186652400778
 20
548.5750667046476
  0
LWPOLYLINE
  5
BE
330
2
100
AcDbEntity
  8
OUTLINE
 62
     7
100
AcDbPolyline
 90
        7
 70
     0
 43
0.0
 10
209.7186652400778
 20
538.2186287046477
 10
205.1242282400779
 20
538.5599097046475
 10
200.274392240078
 20
538.7506147046475
 10
195.316516240078
 20
538.7849507046476
 10
190.4012452400779
 20
538.6618737046476
 10
185.6779252400779
 20
538.3851227046475
 10
183.7186652400778
 20
538.2186287046477
  0
ARC
  5
BF
330
2
100
AcDbEntity
  8
OUTLINE
 62
     7
100
AcDbCircle
 10
196.718665240078
 20
523.6169487046473
 30
0.0
 40
31.15931699999999
100
AcDbArc
 50
353.7089030000016
 51
186.2910969999983
  0
ARC
  5
C0
330
2
100
AcDbEntity
  8
OUTLINE
 62
     7
100
AcDbCircle
 10
245.143426240078
 20
52.01411370464757
 30
0.0
 40
500.0
100
AcDbArc
 50
96.1182660000021
 51
97.12587100000041
  0
ARC
  5
C1
330
2
100
AcDbEntity
  8
OUTLINE
 62
     7
100
AcDbCircle
 10
196.718665240078
 20
289.1374827046476
 30
0.0
 40
250.0
100
AcDbArc
 50
86.98420000000167
 51
93.01579999999836
  0
LWPOLYLINE
  5
C2
330
2
100
AcDbEntity
  8
OUTLINE
 62
     7
100
AcDbPolyline
 90
       19
 70
     0
 43
0.0
 10
227.7186652400778
 20
519.9044157046476
 10
227.247705240078
 20
521.1199527046476
 10
225.849136240078
 20
522.2985567046475
 10
223.5654532400778
 20
523.4044157046476
 10
220.466043240078
 20
524.4039287046475
 10
216.645081240078
 20
525.2667267046475
 10
212.218665240078
 20
525.9665937046475
 10
207.3212902400778
 20
526.4822637046476
 10
202.101759240078
 20
526.7980697046475
 10
196.718665240078
 20
526.9044157046476
 10
191.335572240078
 20
526.7980697046475
 10
186.1160412400781
 20
526.4822637046476
 10
181.2186652400778
 20
525.9665937046475
 10
176.7922492400779
 20
525.2667267046475
 10
172.971287240078
 20
524.4039287046475
 10
169.8718782400779
 20
523.4044157046476
 10
167.588194240078
 20
522.2985567046475
 10
166.1896252400779
 20
521.1199527046476
 10
165.7186652400779
 20
519.9044157046476
  0
ARC
  5
C3
330
2
100
AcDbEntity
  8
OUTLINE
 62
     7
100
AcDbCircle
 10
219.718665240078
 20
464.8020417046476
 30
0.0
 40
50.0
100
AcDbArc
 50
148.9940239999999
 51
180.5846609999983
  0
LINE
  5
C4
330
2
100
AcDbEntity
  8
OUTLINE
 62
     7
100
AcDbLine
 10
170.7186652400779
 20
452.4391967046476
 30
0.0
 11
170.7186652400779
 21
405.4391967046475
 31
0.0
  0
LINE
  5
C5
330
2
100
AcDbEntity
  8
OUTLINE
 62
     7
100
AcDbLine
 10
170.7186652400779
 20
405.4391967046475
 30
0.0
 11
182.718665240078
 21
405.4391967046475
 31
0.0
  0
LINE
  5
C6
330
2
100
AcDbEntity
  8
OUTLINE
 62
     7
100
AcDbLine
 10
170.7186652400779
 20
404.9391967046475
 30
0.0
 11
182.718665240078
 21
404.9391967046475
 31
0.0
  0
LINE
  5
C7
330
2
100
AcDbEntity
  8
OUTLINE
 62
     7
100
AcDbLine
 10
173.6686652400781
 20
405.4391967046475
 30
0.0
 11
173.6686652400781
 21
404.9391967046475
 31
0.0
  0
ARC
  5
C8
330
2
100
AcDbEntity
  8
OUTLINE
 62
     7
100
AcDbCircle
 10
200.718665240078
 20
452.4391967046476
 30
0.0
 40
30.0
100
AcDbArc
 50
158.7710969999991
 51
180.0
  0
LINE
  5
C9
330
2
100
AcDbEntity
  8
OUTLINE
 62
     7
100
AcDbLine
 10
170.7212162400779
 20
463.3020417046475
 30
0.0
 11
182.718665240078
 21
463.3020417046475
 31
0.0
  0
ARC
  5
CA
330
2
100
AcDbEntity
  8
OUTLINE
 62
     7
100
AcDbCircle
 10
170.7212162400779
 20
464.3020417046476
 30
0.0
 40
1.0
100
AcDbArc
 50
180.5846609999983
 51
270.0
  0
LWPOLYLINE
  5
CB
330
2
100
AcDbEntity
  8
OUTLINE
 62
     7
100
AcDbPolyline
 90
       61
 70
     0
 43
0.0
 10
169.5186652400779
 20
494.5707937046476
 10
169.4014522400778
 20
494.9930207046476
 10
169.284358240078
 20
495.4152477046475
 10
169.1675032400779
 20
495.8374747046475
 10
169.051009240078
 20
496.2597017046475
 10
168.9349932400779
 20
496.6819287046475
 10
168.8195762400779
 20
497.1041557046476
 10
168.7048782400779
 20
497.5263837046475
 10
168.5910182400779
 20
497.9486107046475
 10
168.4781172400779
 20
498.3708377046474
 10
168.3662942400779
 20
498.7930647046475
 10
168.255668240078
 20
499.2152917046476
 10
168.1463602400779
 20
499.6375187046476
 10
168.0384892400779
 20
500.0597457046476
 10
167.9321762400779
 20
500.4819727046475
 10
167.8275392400779
 20
500.9041997046475
 10
167.724699240078
 20
501.3264267046475
 10
167.623776240078
 20
501.7486537046476
 10
167.5248882400779
 20
502.1708807046475
 10
167.4281572400779
 20
502.5931077046475
 10
167.3337022400779
 20
503.0153347046475
 10
167.241642240078
 20
503.4375617046475
 10
167.1520972400779
 20
503.8597887046476
 10
167.0651882400779
 20
504.2820157046476
 10
166.9810332400779
 20
504.7042427046475
 10
166.8997532400779
 20
505.1264697046476
 10
166.821467240078
 20
505.5486967046475
 10
166.7462962400779
 20
505.9709237046475
 10
166.6743592400779
 20
506.3931507046476
 10
166.605775240078
 20
506.8153777046475
 10
166.540665240078
 20
507.2376047046475
 10
166.479109240078
 20
507.6598317046475
 10
166.421025240078
 20
508.0820587046475
 10
166.3662962400779
 20
508.5042857046476
 10
166.314801240078
 20
508.9265127046476
 10
166.266420240078
 20
509.3487397046476
 10
166.2210332400779
 20
509.7709667046475
 10
166.178522240078
 20
510.1931937046477
 10
166.138765240078
 20
510.6154207046476
 10
166.1016432400779
 20
511.0376477046473
 10
166.0670362400779
 20
511.4598747046475
 10
166.034825240078
 20
511.8821017046475
 10
166.004890240078
 20
512.3043287046475
 10
165.9771112400779
 20
512.7265567046475
 10
165.9513682400779
 20
513.1487837046476
 10
165.927541240078
 20
513.5710107046476
 10
165.9055112400779
 20
513.9932377046476
 10
165.885158240078
 20
514.4154647046475
 10
165.866362240078
 20
514.8376917046475
 10
165.849004240078
 20
515.2599187046474
 10
165.8329632400779
 20
515.6821457046476
 10
165.818119240078
 20
516.1043727046476
 10
165.804354240078
 20
516.5265997046476
 10
165.7915472400779
 20
516.9488267046475
 10
165.779578240078
 20
517.3710537046477
 10
165.7683282400779
 20
517.7932807046476
 10
165.7576772400779
 20
518.2155077046476
 10
165.7475052400779
 20
518.6377347046475
 10
165.7376922400779
 20
519.0599617046475
 10
165.7281192400779
 20
519.4821887046475
 10
165.7186652400779
 20
519.9044157046476
  0
LWPOLYLINE
  5
CC
330
2
100
AcDbEntity
  8
OUTLINE
 62
     7
100
AcDbPolyline
 90
       36
 70
     1
 43
0.0
 10
175.7186652400778
 20
494.5707937046476
 10
175.760444240078
 20
494.4633057046476
 10
175.8845102400778
 20
494.3590837046476
 10
176.0870952400781
 20
494.2612937046475
 10
176.3620432400778
 20
494.1729087046476
 10
176.700999240078
 20
494.0966127046475
 10
177.0936652400778
 20
494.0347247046475
 10
177.5281102400779
 20
493.9891247046475
 10
177.991133240078
 20
493.9611977046475
 10
178.468665240078
 20
493.9517937046475
 10
178.946198240078
 20
493.9611977046475
 10
179.409221240078
 20
493.9891247046475
 10
179.843665240078
 20
494.0347247046475
 10
180.2363312400778
 20
494.0966127046475
 10
180.575287240078
 20
494.1729087046476
 10
180.850235240078
 20
494.2612937046475
 10
181.052820240078
 20
494.3590837046476
 10
181.1768862400779
 20
494.4633057046476
 10
181.2186652400778
 20
494.5707937046476
 10
181.1768862400779
 20
494.6782827046475
 10
181.052820240078
 20
494.7825047046475
 10
180.850235240078
 20
494.8802937046474
 10
180.575287240078
 20
494.9686797046475
 10
180.2363312400778
 20
495.0449757046476
 10
179.843665240078
 20
495.1068637046476
 10
179.409221240078
 20
495.1524637046475
 10
178.946198240078
 20
495.1803897046476
 10
178.468665240078
 20
495.1897937046475
 10
177.991133240078
 20
495.1803897046476
 10
177.5281102400779
 20
495.1524637046475
 10
177.0936652400778
 20
495.1068637046476
 10
176.700999240078
 20
495.0449757046476
 10
176.3620432400778
 20
494.9686797046475
 10
176.0870952400781
 20
494.8802937046474
 10
175.8845102400778
 20
494.7825047046475
 10
175.760444240078
 20
494.6782827046475
  0
LWPOLYLINE
  5
CD
330
2
100
AcDbEntity
  8
OUTLINE
 62
     7
100
AcDbPolyline
 90
       36
 70
     1
 43
0.0
 10
181.718665240078
 20
494.5707937046476
 10
181.6768862400778
 20
494.6782827046475
 10
181.5528202400781
 20
494.7825047046475
 10
181.350235240078
 20
494.8802937046474
 10
181.075287240078
 20
494.9686797046475
 10
180.7363312400779
 20
495.0449757046476
 10
180.343665240078
 20
495.1068637046476
 10
179.909221240078
 20
495.1524637046475
 10
179.4461982400779
 20
495.1803897046476
 10
178.9686652400778
 20
495.1897937046475
 10
178.491133240078
 20
495.1803897046476
 10
178.0281102400778
 20
495.1524637046475
 10
177.593665240078
 20
495.1068637046476
 10
177.200999240078
 20
495.0449757046476
 10
176.8620432400779
 20
494.9686797046475
 10
176.587095240078
 20
494.8802937046474
 10
176.384510240078
 20
494.7825047046475
 10
176.260444240078
 20
494.6782827046475
 10
176.218665240078
 20
494.5707937046476
 10
176.260444240078
 20
494.4633057046476
 10
176.384510240078
 20
494.3590837046476
 10
176.587095240078
 20
494.2612937046475
 10
176.8620432400779
 20
494.1729087046476
 10
177.200999240078
 20
494.0966127046475
 10
177.593665240078
 20
494.0347247046475
 10
178.0281102400778
 20
493.9891247046475
 10
178.491133240078
 20
493.9611977046475
 10
178.9686652400778
 20
493.9517937046475
 10
179.4461982400779
 20
493.9611977046475
 10
179.909221240078
 20
493.9891247046475
 10
180.343665240078
 20
494.0347247046475
 10
180.7363312400779
 20
494.0966127046475
 10
181.075287240078
 20
494.1729087046476
 10
181.350235240078
 20
494.2612937046475
 10
181.5528202400781
 20
494.3590837046476
 10
181.6768862400778
 20
494.4633057046476
  0
CIRCLE
  5
CE
330
2
100
AcDbEntity
  8
OUTLINE
 62
     7
100
AcDbCircle
 10
182.068641240078
 20
530.8256557046474
 30
0.0
 40
0.35
  0
CIRCLE
  5
CF
330
2
100
AcDbEntity
  8
OUTLINE
 62
     7
100
AcDbCircle
 10
183.468665240078
 20
530.8256557046474
 30
0.0
 40
0.35
  0
CIRCLE
  5
D0
330
2
100
AcDbEntity
  8
OUTLINE
 62
     7
100
AcDbCircle
 10
184.8686902400778
 20
530.8256557046474
 30
0.0
 40
0.35
  0
ARC
  5
D1
330
2
100
AcDbEntity
  8
OUTLINE
 62
     7
100
AcDbCircle
 10
180.108092240078
 20
543.1328797046476
 30
0.0
 40
2.0
100
AcDbArc
 50
141.930066999999
 51
215.6087450000001
  0
ARC
  5
D2
330
2
100
AcDbEntity
  8
OUTLINE
 62
     7
100
AcDbCircle
 10
180.8803222400779
 20
543.4373227046476
 30
0.0
 40
2.0
100
AcDbArc
 50
142.981807999999
 51
213.7339489999988
  0
ARC
  5
D3
330
2
100
AcDbEntity
  8
OUTLINE
 62
     7
100
AcDbCircle
 10
182.218665240078
 20
535.4756577046475
 30
0.0
 40
0.5
100
AcDbArc
 50
90.0
 51
180.0
  0
CIRCLE
  5
D4
330
2
100
AcDbEntity
  8
OUTLINE
 62
     7
100
AcDbCircle
 10
184.8686902400778
 20
532.6256597046477
 30
0.0
 40
0.35
  0
CIRCLE
  5
D5
330
2
100
AcDbEntity
  8
OUTLINE
 62
     7
100
AcDbCircle
 10
183.468665240078
 20
532.6256597046477
 30
0.0
 40
0.35
  0
CIRCLE
  5
D6
330
2
100
AcDbEntity
  8
OUTLINE
 62
     7
100
AcDbCircle
 10
182.068641240078
 20
532.6256597046477
 30
0.0
 40
0.35
  0
LINE
  5
D7
330
2
100
AcDbEntity
  8
OUTLINE
 62
     7
100
AcDbLine
 10
185.218665240078
 20
533.4756577046475
 30
0.0
 11
185.218665240078
 21
533.9756577046475
 31
0.0
  0
LINE
  5
D8
330
2
100
AcDbEntity
  8
OUTLINE
 62
     7
100
AcDbLine
 10
181.718665240078
 20
533.4756577046475
 30
0.0
 11
185.218665240078
 21
533.4756577046475
 31
0.0
  0
LINE
  5
D9
330
2
100
AcDbEntity
  8
OUTLINE
 62
     7
100
AcDbLine
 10
181.718665240078
 20
535.4756577046475
 30
0.0
 11
181.718665240078
 21
533.4756577046475
 31
0.0
  0
ARC
  5
DA
330
2
100
AcDbEntity
  8
OUTLINE
 62
     7
100
AcDbCircle
 10
187.117511240078
 20
547.6023517046476
 30
0.0
 40
9.5
100
AcDbArc
 50
213.7339489999988
 51
248.0460439999971
  0
ARC
  5
DB
330
2
100
AcDbEntity
  8
OUTLINE
 62
     7
100
AcDbCircle
 10
186.612188240078
 20
547.7908557046474
 30
0.0
 40
10.0
100
AcDbArc
 50
215.6087450000001
 51
253.1808199999996
  0
ARC
  5
DC
330
2
100
AcDbEntity
  8
OUTLINE
 62
     7
100
AcDbCircle
 10
190.661266240078
 20
536.0619827046475
 30
0.0
 40
14.25
100
AcDbArc
 50
121.9585490000022
 51
142.981807999999
  0
ARC
  5
DD
330
2
100
AcDbEntity
  8
OUTLINE
 62
     7
100
AcDbCircle
 10
190.342456240078
 20
535.1167827046475
 30
0.0
 40
15.0
100
AcDbArc
 50
116.2051199999984
 51
141.930066999999
  0
ARC
  5
DE
330
2
100
AcDbEntity
  8
OUTLINE
 62
     7
100
AcDbCircle
 10
173.718665240078
 20
464.8020417046476
 30
0.0
 40
50.0
100
AcDbArc
 50
359.4153390000015
 51
31.00597600000006
  0
LINE
  5
DF
330
2
100
AcDbEntity
  8
OUTLINE
 62
     7
100
AcDbLine
 10
222.718665240078
 20
452.4391967046476
 30
0.0
 11
222.718665240078
 21
405.4391967046475
 31
0.0
  0
LINE
  5
E0
330
2
100
AcDbEntity
  8
OUTLINE
 62
     7
100
AcDbLine
 10
222.718665240078
 20
405.4391967046475
 30
0.0
 11
210.718665240078
 21
405.4391967046475
 31
0.0
  0
LINE
  5
E1
330
2
100
AcDbEntity
  8
OUTLINE
 62
     7
100
AcDbLine
 10
210.718665240078
 20
404.9391967046475
 30
0.0
 11
222.718665240078
 21
404.9391967046475
 31
0.0
  0
LINE
  5
E2
330
2
100
AcDbEntity
  8
OUTLINE
 62
     7
100
AcDbLine
 10
219.768665240078
 20
405.4391967046475
 30
0.0
 11
219.768665240078
 21
404.9391967046475
 31
0.0
  0
LINE
  5
E3
330
2
100
AcDbEntity
  8
OUTLINE
 62
     7
100
AcDbLine
 10
210.718665240078
 20
463.3020417046475
 30
0.0
 11
222.716114240078
 21
463.3020417046475
 31
0.0
  0
ARC
  5
E4
330
2
100
AcDbEntity
  8
OUTLINE
 62
     7
100
AcDbCircle
 10
192.718665240078
 20
452.4391967046476
 30
0.0
 40
30.0
100
AcDbArc
 50
0.0
 51
21.22890300000074
  0
ARC
  5
E5
330
2
100
AcDbEntity
  8
OUTLINE
 62
     7
100
AcDbCircle
 10
222.716114240078
 20
464.3020417046476
 30
0.0
 40
1.0
100
AcDbArc
 50
270.0
 51
359.4153390000015
  0
LINE
  5
E6
330
2
100
AcDbEntity
  8
OUTLINE
 62
     7
100
AcDbLine
 10
207.718665240078
 20
532.9756577046476
 30
0.0
 11
207.718665240078
 21
530.4756577046475
 31
0.0
  0
LINE
  5
E7
330
2
100
AcDbEntity
  8
OUTLINE
 62
     7
100
AcDbLine
 10
209.218665240078
 20
530.4756577046475
 30
0.0
 11
209.218665240078
 21
532.9756577046476
 31
0.0
  0
LWPOLYLINE
  5
E8
330
2
100
AcDbEntity
  8
OUTLINE
 62
     7
100
AcDbPolyline
 90
       36
 70
     1
 43
0.0
 10
198.7992082400779
 20
498.4510667046476
 10
198.840987240078
 20
498.3436487046476
 10
198.965054240078
 20
498.2394947046475
 10
199.167638240078
 20
498.1417697046476
 10
199.442586240078
 20
498.0534417046476
 10
199.781542240078
 20
497.9771957046475
 10
200.174208240078
 20
497.9153477046475
 10
200.608653240078
 20
497.8697777046476
 10
201.071676240078
 20
497.8418697046476
 10
201.549208240078
 20
497.8324717046475
 10
202.026741240078
 20
497.8418697046476
 10
202.489764240078
 20
497.8697777046476
 10
202.9242082400779
 20
497.9153477046475
 10
203.3168742400778
 20
497.9771957046475
 10
203.655831240078
 20
498.0534417046476
 10
203.930778240078
 20
498.1417697046476
 10
204.133363240078
 20
498.2394947046475
 10
204.257430240078
 20
498.3436487046476
 10
204.2992082400779
 20
498.4510667046476
 10
204.257430240078
 20
498.5584847046474
 10
204.133363240078
 20
498.6626387046475
 10
203.930778240078
 20
498.7603647046475
 10
203.655831240078
 20
498.8486917046475
 10
203.3168742400778
 20
498.9249377046474
 10
202.9242082400779
 20
498.9867857046475
 10
202.489764240078
 20
499.0323557046474
 10
202.026741240078
 20
499.0602637046475
 10
201.549208240078
 20
499.0696617046475
 10
201.071676240078
 20
499.0602637046475
 10
200.608653240078
 20
499.0323557046474
 10
200.174208240078
 20
498.9867857046475
 10
199.781542240078
 20
498.9249377046474
 10
199.442586240078
 20
498.8486917046475
 10
199.167638240078
 20
498.7603647046475
 10
198.965054240078
 20
498.6626387046475
 10
198.840987240078
 20
498.5584847046474
  0
LWPOLYLINE
  5
E9
330
2
100
AcDbEntity
  8
OUTLINE
 62
     7
100
AcDbPolyline
 90
       36
 70
     1
 43
0.0
 10
198.7992082400779
 20
490.6342777046476
 10
198.840987240078
 20
490.5366257046475
 10
198.965054240078
 20
490.4419397046476
 10
199.167638240078
 20
490.3530987046476
 10
199.442586240078
 20
490.2728007046476
 10
199.781542240078
 20
490.2034857046476
 10
200.174208240078
 20
490.1472607046476
 10
200.608653240078
 20
490.1058337046475
 10
201.071676240078
 20
490.0804627046476
 10
201.549208240078
 20
490.0719187046475
 10
202.026741240078
 20
490.0804627046476
 10
202.489764240078
 20
490.1058337046475
 10
202.9242082400779
 20
490.1472607046476
 10
203.3168742400778
 20
490.2034857046476
 10
203.655831240078
 20
490.2728007046476
 10
203.930778240078
 20
490.3530987046476
 10
204.133363240078
 20
490.4419397046476
 10
204.257430240078
 20
490.5366257046475
 10
204.2992082400779
 20
490.6342777046476
 10
204.257430240078
 20
490.7319307046475
 10
204.133363240078
 20
490.8266157046475
 10
203.930778240078
 20
490.9154577046475
 10
203.655831240078
 20
490.9957547046476
 10
203.3168742400778
 20
491.0650697046476
 10
202.9242082400779
 20
491.1212947046475
 10
202.489764240078
 20
491.1627227046476
 10
202.026741240078
 20
491.1880937046475
 10
201.549208240078
 20
491.1966367046475
 10
201.071676240078
 20
491.1880937046475
 10
200.608653240078
 20
491.1627227046476
 10
200.174208240078
 20
491.1212947046475
 10
199.781542240078
 20
491.0650697046476
 10
199.442586240078
 20
490.9957547046476
 10
199.167638240078
 20
490.9154577046475
 10
198.965054240078
 20
490.8266157046475
 10
198.840987240078
 20
490.7319307046475
  0
LWPOLYLINE
  5
EA
330
2
100
AcDbEntity
  8
OUTLINE
 62
     7
100
AcDbPolyline
 90
       36
 70
     1
 43
0.0
 10
188.718665240078
 20
494.5707937046476
 10
188.8402032400779
 20
494.2583047046475
 10
189.2011242400778
 20
493.9553107046476
 10
189.790462240078
 20
493.6710177046474
 10
190.5903102400779
 20
493.4140637046475
 10
191.576364240078
 20
493.1922567046476
 10
192.7186652400778
 20
493.0123357046475
 10
193.982504240078
 20
492.8797677046475
 10
195.329480240078
 20
492.7985807046475
 10
196.718665240078
 20
492.7712417046475
 10
198.1078512400778
 20
492.7985807046475
 10
199.454826240078
 20
492.8797677046475
 10
200.7186652400778
 20
493.0123357046475
 10
201.860966240078
 20
493.1922567046476
 10
202.847021240078
 20
493.4140637046475
 10
203.646868240078
 20
493.6710177046474
 10
204.236206240078
 20
493.9553107046476
 10
204.5971272400779
 20
494.2583047046475
 10
204.718665240078
 20
494.5707937046476
 10
204.5971272400779
 20
494.8832827046476
 10
204.236206240078
 20
495.1862767046475
 10
203.646868240078
 20
495.4705697046476
 10
202.847021240078
 20
495.7275237046475
 10
201.860966240078
 20
495.9493307046475
 10
200.7186652400778
 20
496.1292517046476
 10
199.454826240078
 20
496.2618197046475
 10
198.1078512400778
 20
496.3430067046476
 10
196.718665240078
 20
496.3703467046475
 10
195.329480240078
 20
496.3430067046476
 10
193.982504240078
 20
496.2618197046475
 10
192.7186652400778
 20
496.1292517046476
 10
191.576364240078
 20
495.9493307046475
 10
190.5903102400779
 20
495.7275237046475
 10
189.790462240078
 20
495.4705697046476
 10
189.2011242400778
 20
495.1862767046475
 10
188.8402032400779
 20
494.8832827046476
  0
LWPOLYLINE
  5
EB
330
2
100
AcDbEntity
  8
OUTLINE
 62
     7
100
AcDbPolyline
 90
       36
 70
     1
 43
0.0
 10
204.2992082400779
 20
490.6342777046476
 10
204.257430240078
 20
490.7319307046475
 10
204.133363240078
 20
490.8266157046475
 10
203.930778240078
 20
490.9154577046475
 10
203.655831240078
 20
490.9957547046476
 10
203.3168742400778
 20
491.0650697046476
 10
202.9242082400779
 20
491.1212947046475
 10
202.489764240078
 20
491.1627227046476
 10
202.026741240078
 20
491.1880937046475
 10
201.549208240078
 20
491.1966367046475
 10
201.071676240078
 20
491.1880937046475
 10
200.608653240078
 20
491.1627227046476
 10
200.174208240078
 20
491.1212947046475
 10
199.781542240078
 20
491.0650697046476
 10
199.442586240078
 20
490.9957547046476
 10
199.167638240078
 20
490.9154577046475
 10
198.965054240078
 20
490.8266157046475
 10
198.840987240078
 20
490.7319307046475
 10
198.7992082400779
 20
490.6342777046476
 10
198.840987240078
 20
490.5366257046475
 10
198.965054240078
 20
490.4419397046476
 10
199.167638240078
 20
490.3530987046476
 10
199.442586240078
 20
490.2728007046476
 10
199.781542240078
 20
490.2034857046476
 10
200.174208240078
 20
490.1472607046476
 10
200.608653240078
 20
490.1058337046475
 10
201.071676240078
 20
490.0804627046476
 10
201.549208240078
 20
490.0719187046475
 10
202.026741240078
 20
490.0804627046476
 10
202.489764240078
 20
490.1058337046475
 10
202.9242082400779
 20
490.1472607046476
 10
203.3168742400778
 20
490.2034857046476
 10
203.655831240078
 20
490.2728007046476
 10
203.930778240078
 20
490.3530987046476
 10
204.133363240078
 20
490.4419397046476
 10
204.257430240078
 20
490.5366257046475
  0
LWPOLYLINE
  5
EC
330
2
100
AcDbEntity
  8
OUTLINE
 62
     7
100
AcDbPolyline
 90
       36
 70
     1
 43
0.0
 10
204.2992082400779
 20
498.4510667046476
 10
204.257430240078
 20
498.5584847046474
 10
204.133363240078
 20
498.6626387046475
 10
203.930778240078
 20
498.7603647046475
 10
203.655831240078
 20
498.8486917046475
 10
203.3168742400778
 20
498.9249377046474
 10
202.9242082400779
 20
498.9867857046475
 10
202.489764240078
 20
499.0323557046474
 10
202.026741240078
 20
499.0602637046475
 10
201.549208240078
 20
499.0696617046475
 10
201.071676240078
 20
499.0602637046475
 10
200.608653240078
 20
499.0323557046474
 10
200.174208240078
 20
498.9867857046475
 10
199.781542240078
 20
498.9249377046474
 10
199.442586240078
 20
498.8486917046475
 10
199.167638240078
 20
498.7603647046475
 10
198.965054240078
 20
498.6626387046475
 10
198.840987240078
 20
498.5584847046474
 10
198.7992082400779
 20
498.4510667046476
 10
198.840987240078
 20
498.3436487046476
 10
198.965054240078
 20
498.2394947046475
 10
199.167638240078
 20
498.1417697046476
 10
199.442586240078
 20
498.0534417046476
 10
199.781542240078
 20
497.9771957046475
 10
200.174208240078
 20
497.9153477046475
 10
200.608653240078
 20
497.8697777046476
 10
201.071676240078
 20
497.8418697046476
 10
201.549208240078
 20
497.8324717046475
 10
202.026741240078
 20
497.8418697046476
 10
202.489764240078
 20
497.8697777046476
 10
202.9242082400779
 20
497.9153477046475
 10
203.3168742400778
 20
497.9771957046475
 10
203.655831240078
 20
498.0534417046476
 10
203.930778240078
 20
498.1417697046476
 10
204.133363240078
 20
498.2394947046475
 10
204.257430240078
 20
498.3436487046476
  0
LWPOLYLINE
  5
ED
330
2
100
AcDbEntity
  8
OUTLINE
 62
     7
100
AcDbPolyline
 90
       36
 70
     1
 43
0.0
 10
204.718665240078
 20
494.5707937046476
 10
204.5971272400779
 20
494.8832827046476
 10
204.236206240078
 20
495.1862767046475
 10
203.646868240078
 20
495.4705697046476
 10
202.847021240078
 20
495.7275237046475
 10
201.860966240078
 20
495.9493307046475
 10
200.7186652400778
 20
496.1292517046476
 10
199.454826240078
 20
496.2618197046475
 10
198.1078512400778
 20
496.3430067046476
 10
196.718665240078
 20
496.3703467046475
 10
195.329480240078
 20
496.3430067046476
 10
193.982504240078
 20
496.2618197046475
 10
192.7186652400778
 20
496.1292517046476
 10
191.576364240078
 20
495.9493307046475
 10
190.5903102400779
 20
495.7275237046475
 10
189.790462240078
 20
495.4705697046476
 10
189.2011242400778
 20
495.1862767046475
 10
188.8402032400779
 20
494.8832827046476
 10
188.718665240078
 20
494.5707937046476
 10
188.8402032400779
 20
494.2583047046475
 10
189.2011242400778
 20
493.9553107046476
 10
189.790462240078
 20
493.6710177046474
 10
190.5903102400779
 20
493.4140637046475
 10
191.576364240078
 20
493.1922567046476
 10
192.7186652400778
 20
493.0123357046475
 10
193.982504240078
 20
492.8797677046475
 10
195.329480240078
 20
492.7985807046475
 10
196.718665240078
 20
492.7712417046475
 10
198.1078512400778
 20
492.7985807046475
 10
199.454826240078
 20
492.8797677046475
 10
200.7186652400778
 20
493.0123357046475
 10
201.860966240078
 20
493.1922567046476
 10
202.847021240078
 20
493.4140637046475
 10
203.646868240078
 20
493.6710177046474
 10
204.236206240078
 20
493.9553107046476
 10
204.5971272400779
 20
494.2583047046475
  0
LWPOLYLINE
  5
EE
330
2
100
AcDbEntity
  8
OUTLINE
 62
     7
100
AcDbPolyline
 90
       36
 70
     1
 43
0.0
 10
189.138122240078
 20
490.6342777046476
 10
189.1799012400779
 20
490.5366257046475
 10
189.303967240078
 20
490.4419397046476
 10
189.506552240078
 20
490.3530987046476
 10
189.7815002400779
 20
490.2728007046476
 10
190.120456240078
 20
490.2034857046476
 10
190.513122240078
 20
490.1472607046476
 10
190.9475672400779
 20
490.1058337046475
 10
191.4105892400778
 20
490.0804627046476
 10
191.888122240078
 20
490.0719187046475
 10
192.365654240078
 20
490.0804627046476
 10
192.8286772400779
 20
490.1058337046475
 10
193.263122240078
 20
490.1472607046476
 10
193.655788240078
 20
490.2034857046476
 10
193.9947442400779
 20
490.2728007046476
 10
194.2696922400779
 20
490.3530987046476
 10
194.4722772400778
 20
490.4419397046476
 10
194.5963432400779
 20
490.5366257046475
 10
194.638122240078
 20
490.6342777046476
 10
194.5963432400779
 20
490.7319307046475
 10
194.4722772400778
 20
490.8266157046475
 10
194.2696922400779
 20
490.9154577046475
 10
193.9947442400779
 20
490.9957547046476
 10
193.655788240078
 20
491.0650697046476
 10
193.263122240078
 20
491.1212947046475
 10
192.8286772400779
 20
491.1627227046476
 10
192.365654240078
 20
491.1880937046475
 10
191.888122240078
 20
491.1966367046475
 10
191.4105892400778
 20
491.1880937046475
 10
190.9475672400779
 20
491.1627227046476
 10
190.513122240078
 20
491.1212947046475
 10
190.120456240078
 20
491.0650697046476
 10
189.7815002400779
 20
490.9957547046476
 10
189.506552240078
 20
490.9154577046475
 10
189.303967240078
 20
490.8266157046475
 10
189.1799012400779
 20
490.7319307046475
  0
LWPOLYLINE
  5
EF
330
2
100
AcDbEntity
  8
OUTLINE
 62
     7
100
AcDbPolyline
 90
       36
 70
     1
 43
0.0
 10
194.638122240078
 20
490.6342777046476
 10
194.5963432400779
 20
490.7319307046475
 10
194.4722772400778
 20
490.8266157046475
 10
194.2696922400779
 20
490.9154577046475
 10
193.9947442400779
 20
490.9957547046476
 10
193.655788240078
 20
491.0650697046476
 10
193.263122240078
 20
491.1212947046475
 10
192.8286772400779
 20
491.1627227046476
 10
192.365654240078
 20
491.1880937046475
 10
191.888122240078
 20
491.1966367046475
 10
191.4105892400778
 20
491.1880937046475
 10
190.9475672400779
 20
491.1627227046476
 10
190.513122240078
 20
491.1212947046475
 10
190.120456240078
 20
491.0650697046476
 10
189.7815002400779
 20
490.9957547046476
 10
189.506552240078
 20
490.9154577046475
 10
189.303967240078
 20
490.8266157046475
 10
189.1799012400779
 20
490.7319307046475
 10
189.138122240078
 20
490.6342777046476
 10
189.1799012400779
 20
490.5366257046475
 10
189.303967240078
 20
490.4419397046476
 10
189.506552240078
 20
490.3530987046476
 10
189.7815002400779
 20
490.2728007046476
 10
190.120456240078
 20
490.2034857046476
 10
190.513122240078
 20
490.1472607046476
 10
190.9475672400779
 20
490.1058337046475
 10
191.4105892400778
 20
490.0804627046476
 10
191.888122240078
 20
490.0719187046475
 10
192.365654240078
 20
490.0804627046476
 10
192.8286772400779
 20
490.1058337046475
 10
193.263122240078
 20
490.1472607046476
 10
193.655788240078
 20
490.2034857046476
 10
193.9947442400779
 20
490.2728007046476
 10
194.2696922400779
 20
490.3530987046476
 10
194.4722772400778
 20
490.4419397046476
 10
194.5963432400779
 20
490.5366257046475
  0
LWPOLYLINE
  5
F0
330
2
100
AcDbEntity
  8
OUTLINE
 62
     7
100
AcDbPolyline
 90
       36
 70
     1
 43
0.0
 10
189.138122240078
 20
498.4510667046476
 10
189.1799012400779
 20
498.3436487046476
 10
189.303967240078
 20
498.2394947046475
 10
189.506552240078
 20
498.1417697046476
 10
189.7815002400779
 20
498.0534417046476
 10
190.120456240078
 20
497.9771957046475
 10
190.513122240078
 20
497.9153477046475
 10
190.9475672400779
 20
497.8697777046476
 10
191.4105892400778
 20
497.8418697046476
 10
191.888122240078
 20
497.8324717046475
 10
192.365654240078
 20
497.8418697046476
 10
192.8286772400779
 20
497.8697777046476
 10
193.263122240078
 20
497.9153477046475
 10
193.655788240078
 20
497.9771957046475
 10
193.9947442400779
 20
498.0534417046476
 10
194.2696922400779
 20
498.1417697046476
 10
194.4722772400778
 20
498.2394947046475
 10
194.5963432400779
 20
498.3436487046476
 10
194.638122240078
 20
498.4510667046476
 10
194.5963432400779
 20
498.5584847046474
 10
194.4722772400778
 20
498.6626387046475
 10
194.2696922400779
 20
498.7603647046475
 10
193.9947442400779
 20
498.8486917046475
 10
193.655788240078
 20
498.9249377046474
 10
193.263122240078
 20
498.9867857046475
 10
192.8286772400779
 20
499.0323557046474
 10
192.365654240078
 20
499.0602637046475
 10
191.888122240078
 20
499.0696617046475
 10
191.4105892400778
 20
499.0602637046475
 10
190.9475672400779
 20
499.0323557046474
 10
190.513122240078
 20
498.9867857046475
 10
190.120456240078
 20
498.9249377046474
 10
189.7815002400779
 20
498.8486917046475
 10
189.506552240078
 20
498.7603647046475
 10
189.303967240078
 20
498.6626387046475
 10
189.1799012400779
 20
498.5584847046474
  0
LWPOLYLINE
  5
F1
330
2
100
AcDbEntity
  8
OUTLINE
 62
     7
100
AcDbPolyline
 90
       36
 70
     1
 43
0.0
 10
194.638122240078
 20
498.4510667046476
 10
194.5963432400779
 20
498.5584847046474
 10
194.4722772400778
 20
498.6626387046475
 10
194.2696922400779
 20
498.7603647046475
 10
193.9947442400779
 20
498.8486917046475
 10
193.655788240078
 20
498.9249377046474
 10
193.263122240078
 20
498.9867857046475
 10
192.8286772400779
 20
499.0323557046474
 10
192.365654240078
 20
499.0602637046475
 10
191.888122240078
 20
499.0696617046475
 10
191.4105892400778
 20
499.0602637046475
 10
190.9475672400779
 20
499.0323557046474
 10
190.513122240078
 20
498.9867857046475
 10
190.120456240078
 20
498.9249377046474
 10
189.7815002400779
 20
498.8486917046475
 10
189.506552240078
 20
498.7603647046475
 10
189.303967240078
 20
498.6626387046475
 10
189.1799012400779
 20
498.5584847046474
 10
189.138122240078
 20
498.4510667046476
 10
189.1799012400779
 20
498.3436487046476
 10
189.303967240078
 20
498.2394947046475
 10
189.506552240078
 20
498.1417697046476
 10
189.7815002400779
 20
498.0534417046476
 10
190.120456240078
 20
497.9771957046475
 10
190.513122240078
 20
497.9153477046475
 10
190.9475672400779
 20
497.8697777046476
 10
191.4105892400778
 20
497.8418697046476
 10
191.888122240078
 20
497.8324717046475
 10
192.365654240078
 20
497.8418697046476
 10
192.8286772400779
 20
497.8697777046476
 10
193.263122240078
 20
497.9153477046475
 10
193.655788240078
 20
497.9771957046475
 10
193.9947442400779
 20
498.0534417046476
 10
194.2696922400779
 20
498.1417697046476
 10
194.4722772400778
 20
498.2394947046475
 10
194.5963432400779
 20
498.3436487046476
  0
LWPOLYLINE
  5
F2
330
2
100
AcDbEntity
  8
OUTLINE
 62
     7
100
AcDbPolyline
 90
       36
 70
     1
 43
0.0
 10
205.924208240078
 20
497.0109717046475
 10
205.965987240078
 20
496.9034837046477
 10
206.090054240078
 20
496.7992617046474
 10
206.292638240078
 20
496.7014717046476
 10
206.567586240078
 20
496.6130867046476
 10
206.906542240078
 20
496.5367907046476
 10
207.299208240078
 20
496.4749027046475
 10
207.733653240078
 20
496.4293027046476
 10
208.196676240078
 20
496.4013757046475
 10
208.674208240078
 20
496.3919717046476
 10
209.151741240078
 20
496.4013757046475
 10
209.614764240078
 20
496.4293027046476
 10
210.049208240078
 20
496.4749027046475
 10
210.4418742400778
 20
496.5367907046476
 10
210.780831240078
 20
496.6130867046476
 10
211.055778240078
 20
496.7014717046476
 10
211.258363240078
 20
496.7992617046474
 10
211.382430240078
 20
496.9034837046477
 10
211.4242082400779
 20
497.0109717046475
 10
211.382430240078
 20
497.1184607046475
 10
211.258363240078
 20
497.2226827046475
 10
211.055778240078
 20
497.3204717046476
 10
210.780831240078
 20
497.4088577046475
 10
210.4418742400778
 20
497.4851537046474
 10
210.049208240078
 20
497.5470417046476
 10
209.614764240078
 20
497.5926417046474
 10
209.151741240078
 20
497.6205677046475
 10
208.674208240078
 20
497.6299717046475
 10
208.196676240078
 20
497.6205677046475
 10
207.733653240078
 20
497.5926417046474
 10
207.299208240078
 20
497.5470417046476
 10
206.906542240078
 20
497.4851537046474
 10
206.567586240078
 20
497.4088577046475
 10
206.292638240078
 20
497.3204717046476
 10
206.090054240078
 20
497.2226827046475
 10
205.965987240078
 20
497.1184607046475
  0
LWPOLYLINE
  5
F3
330
2
100
AcDbEntity
  8
OUTLINE
 62
     7
100
AcDbPolyline
 90
       36
 70
     1
 43
0.0
 10
205.924208240078
 20
497.0109717046475
 10
205.965987240078
 20
496.9034837046477
 10
206.090054240078
 20
496.7992617046474
 10
206.292638240078
 20
496.7014717046476
 10
206.567586240078
 20
496.6130867046476
 10
206.906542240078
 20
496.5367907046476
 10
207.299208240078
 20
496.4749027046475
 10
207.733653240078
 20
496.4293027046476
 10
208.196676240078
 20
496.4013757046475
 10
208.674208240078
 20
496.3919717046476
 10
209.151741240078
 20
496.4013757046475
 10
209.614764240078
 20
496.4293027046476
 10
210.049208240078
 20
496.4749027046475
 10
210.4418742400778
 20
496.5367907046476
 10
210.780831240078
 20
496.6130867046476
 10
211.055778240078
 20
496.7014717046476
 10
211.258363240078
 20
496.7992617046474
 10
211.382430240078
 20
496.9034837046477
 10
211.4242082400779
 20
497.0109717046475
 10
211.382430240078
 20
497.1184607046475
 10
211.258363240078
 20
497.2226827046475
 10
211.055778240078
 20
497.3204717046476
 10
210.780831240078
 20
497.4088577046475
 10
210.4418742400778
 20
497.4851537046474
 10
210.049208240078
 20
497.5470417046476
 10
209.614764240078
 20
497.5926417046474
 10
209.151741240078
 20
497.6205677046475
 10
208.674208240078
 20
497.6299717046475
 10
208.196676240078
 20
497.6205677046475
 10
207.733653240078
 20
497.5926417046474
 10
207.299208240078
 20
497.5470417046476
 10
206.906542240078
 20
497.4851537046474
 10
206.567586240078
 20
497.4088577046475
 10
206.292638240078
 20
497.3204717046476
 10
206.090054240078
 20
497.2226827046475
 10
205.965987240078
 20
497.1184607046475
  0
LWPOLYLINE
  5
F4
330
2
100
AcDbEntity
  8
OUTLINE
 62
     7
100
AcDbPolyline
 90
       36
 70
     1
 43
0.0
 10
205.924208240078
 20
492.1306157046475
 10
205.965987240078
 20
492.0231277046475
 10
206.090054240078
 20
491.9189057046476
 10
206.292638240078
 20
491.8211157046475
 10
206.567586240078
 20
491.7327307046475
 10
206.906542240078
 20
491.6564347046476
 10
207.299208240078
 20
491.5945457046475
 10
207.733653240078
 20
491.5489457046476
 10
208.196676240078
 20
491.5210197046476
 10
208.674208240078
 20
491.5116157046475
 10
209.151741240078
 20
491.5210197046476
 10
209.614764240078
 20
491.5489457046476
 10
210.049208240078
 20
491.5945457046475
 10
210.4418742400778
 20
491.6564347046476
 10
210.780831240078
 20
491.7327307046475
 10
211.055778240078
 20
491.8211157046475
 10
211.258363240078
 20
491.9189057046476
 10
211.382430240078
 20
492.0231277046475
 10
211.4242082400779
 20
492.1306157046475
 10
211.382430240078
 20
492.2381037046475
 10
211.258363240078
 20
492.3423267046476
 10
211.055778240078
 20
492.4401157046474
 10
210.780831240078
 20
492.5285017046475
 10
210.4418742400778
 20
492.6047977046476
 10
210.049208240078
 20
492.6666857046475
 10
209.614764240078
 20
492.7122857046477
 10
209.151741240078
 20
492.7402117046476
 10
208.674208240078
 20
492.7496157046475
 10
208.196676240078
 20
492.7402117046476
 10
207.733653240078
 20
492.7122857046477
 10
207.299208240078
 20
492.6666857046475
 10
206.906542240078
 20
492.6047977046476
 10
206.567586240078
 20
492.5285017046475
 10
206.292638240078
 20
492.4401157046474
 10
206.090054240078
 20
492.3423267046476
 10
205.965987240078
 20
492.2381037046475
  0
LWPOLYLINE
  5
F5
330
2
100
AcDbEntity
  8
OUTLINE
 62
     7
100
AcDbPolyline
 90
       36
 70
     1
 43
0.0
 10
205.924208240078
 20
492.1306157046475
 10
205.965987240078
 20
492.0231277046475
 10
206.090054240078
 20
491.9189057046476
 10
206.292638240078
 20
491.8211157046475
 10
206.567586240078
 20
491.7327307046475
 10
206.906542240078
 20
491.6564347046476
 10
207.299208240078
 20
491.5945457046475
 10
207.733653240078
 20
491.5489457046476
 10
208.196676240078
 20
491.5210197046476
 10
208.674208240078
 20
491.5116157046475
 10
209.151741240078
 20
491.5210197046476
 10
209.614764240078
 20
491.5489457046476
 10
210.049208240078
 20
491.5945457046475
 10
210.4418742400778
 20
491.6564347046476
 10
210.780831240078
 20
491.7327307046475
 10
211.055778240078
 20
491.8211157046475
 10
211.258363240078
 20
491.9189057046476
 10
211.382430240078
 20
492.0231277046475
 10
211.4242082400779
 20
492.1306157046475
 10
211.382430240078
 20
492.2381037046475
 10
211.258363240078
 20
492.3423267046476
 10
211.055778240078
 20
492.4401157046474
 10
210.780831240078
 20
492.5285017046475
 10
210.4418742400778
 20
492.6047977046476
 10
210.049208240078
 20
492.6666857046475
 10
209.614764240078
 20
492.7122857046477
 10
209.151741240078
 20
492.7402117046476
 10
208.674208240078
 20
492.7496157046475
 10
208.196676240078
 20
492.7402117046476
 10
207.733653240078
 20
492.7122857046477
 10
207.299208240078
 20
492.6666857046475
 10
206.906542240078
 20
492.6047977046476
 10
206.567586240078
 20
492.5285017046475
 10
206.292638240078
 20
492.4401157046474
 10
206.090054240078
 20
492.3423267046476
 10
205.965987240078
 20
492.2381037046475
  0
LWPOLYLINE
  5
F6
330
2
100
AcDbEntity
  8
OUTLINE
 62
     7
100
AcDbPolyline
 90
       36
 70
     1
 43
0.0
 10
211.7186652400778
 20
494.5707937046476
 10
211.760444240078
 20
494.4633057046476
 10
211.8845102400778
 20
494.3590837046476
 10
212.087095240078
 20
494.2612937046475
 10
212.3620432400779
 20
494.1729087046476
 10
212.7009992400779
 20
494.0966127046475
 10
213.0936652400778
 20
494.0347247046475
 10
213.5281102400778
 20
493.9891247046475
 10
213.991133240078
 20
493.9611977046475
 10
214.468665240078
 20
493.9517937046475
 10
214.9461982400779
 20
493.9611977046475
 10
215.4092212400779
 20
493.9891247046475
 10
215.843665240078
 20
494.0347247046475
 10
216.2363312400779
 20
494.0966127046475
 10
216.5752872400779
 20
494.1729087046476
 10
216.850235240078
 20
494.2612937046475
 10
217.0528202400781
 20
494.3590837046476
 10
217.1768862400778
 20
494.4633057046476
 10
217.218665240078
 20
494.5707937046476
 10
217.1768862400778
 20
494.6782827046475
 10
217.0528202400781
 20
494.7825047046475
 10
216.850235240078
 20
494.8802937046474
 10
216.5752872400779
 20
494.9686797046475
 10
216.2363312400779
 20
495.0449757046476
 10
215.843665240078
 20
495.1068637046476
 10
215.4092212400779
 20
495.1524637046475
 10
214.9461982400779
 20
495.1803897046476
 10
214.468665240078
 20
495.1897937046475
 10
213.991133240078
 20
495.1803897046476
 10
213.5281102400778
 20
495.1524637046475
 10
213.0936652400778
 20
495.1068637046476
 10
212.7009992400779
 20
495.0449757046476
 10
212.3620432400779
 20
494.9686797046475
 10
212.087095240078
 20
494.8802937046474
 10
211.8845102400778
 20
494.7825047046475
 10
211.760444240078
 20
494.6782827046475
  0
LWPOLYLINE
  5
F7
330
2
100
AcDbEntity
  8
OUTLINE
 62
     7
100
AcDbPolyline
 90
       36
 70
     1
 43
0.0
 10
217.7186652400779
 20
494.5707937046476
 10
217.6768862400778
 20
494.6782827046475
 10
217.552820240078
 20
494.7825047046475
 10
217.350235240078
 20
494.8802937046474
 10
217.075287240078
 20
494.9686797046475
 10
216.7363312400778
 20
495.0449757046476
 10
216.3436652400779
 20
495.1068637046476
 10
215.909221240078
 20
495.1524637046475
 10
215.4461982400778
 20
495.1803897046476
 10
214.968665240078
 20
495.1897937046475
 10
214.491133240078
 20
495.1803897046476
 10
214.0281102400778
 20
495.1524637046475
 10
213.593665240078
 20
495.1068637046476
 10
213.200999240078
 20
495.0449757046476
 10
212.8620432400778
 20
494.9686797046475
 10
212.587095240078
 20
494.8802937046474
 10
212.384510240078
 20
494.7825047046475
 10
212.260444240078
 20
494.6782827046475
 10
212.218665240078
 20
494.5707937046476
 10
212.260444240078
 20
494.4633057046476
 10
212.384510240078
 20
494.3590837046476
 10
212.587095240078
 20
494.2612937046475
 10
212.8620432400778
 20
494.1729087046476
 10
213.200999240078
 20
494.0966127046475
 10
213.593665240078
 20
494.0347247046475
 10
214.0281102400778
 20
493.9891247046475
 10
214.491133240078
 20
493.9611977046475
 10
214.968665240078
 20
493.9517937046475
 10
215.4461982400778
 20
493.9611977046475
 10
215.909221240078
 20
493.9891247046475
 10
216.3436652400779
 20
494.0347247046475
 10
216.7363312400778
 20
494.0966127046475
 10
217.075287240078
 20
494.1729087046476
 10
217.350235240078
 20
494.2612937046475
 10
217.552820240078
 20
494.3590837046476
 10
217.6768862400778
 20
494.4633057046476
  0
LINE
  5
F8
330
2
100
AcDbEntity
  8
OUTLINE
 62
     7
100
AcDbLine
 10
207.718665240078
 20
530.4756577046475
 30
0.0
 11
209.218665240078
 21
530.4756577046475
 31
0.0
  0
LWPOLYLINE
  5
F9
330
2
100
AcDbEntity
  8
OUTLINE
 62
     7
100
AcDbPolyline
 90
       61
 70
     0
 43
0.0
 10
227.7186652400778
 20
519.9044157046476
 10
227.709212240078
 20
519.4821887046475
 10
227.6996392400779
 20
519.0599617046475
 10
227.689827240078
 20
518.6377347046475
 10
227.679655240078
 20
518.2155077046476
 10
227.669004240078
 20
517.7932807046476
 10
227.657754240078
 20
517.3710537046477
 10
227.645786240078
 20
516.9488267046475
 10
227.6329792400781
 20
516.5265997046476
 10
227.619213240078
 20
516.1043727046476
 10
227.604370240078
 20
515.6821457046476
 10
227.5883292400779
 20
515.2599187046474
 10
227.5709702400781
 20
514.8376917046475
 10
227.5521742400778
 20
514.4154647046475
 10
227.531821240078
 20
513.9932377046476
 10
227.509791240078
 20
513.5710107046476
 10
227.4859642400778
 20
513.1487837046476
 10
227.4602212400779
 20
512.7265567046475
 10
227.432442240078
 20
512.3043287046475
 10
227.402507240078
 20
511.8821017046475
 10
227.370295240078
 20
511.4598747046475
 10
227.335689240078
 20
511.0376477046473
 10
227.298567240078
 20
510.6154207046476
 10
227.258809240078
 20
510.1931937046477
 10
227.216297240078
 20
509.7709667046475
 10
227.1709112400778
 20
509.3487397046476
 10
227.1225302400778
 20
508.9265127046476
 10
227.0710342400779
 20
508.5042857046476
 10
227.0163052400778
 20
508.0820587046475
 10
226.9582222400778
 20
507.6598317046475
 10
226.8966652400778
 20
507.2376047046475
 10
226.831555240078
 20
506.8153777046475
 10
226.762971240078
 20
506.3931507046476
 10
226.691034240078
 20
505.9709237046475
 10
226.615863240078
 20
505.5486967046475
 10
226.5375772400779
 20
505.1264697046476
 10
226.456297240078
 20
504.7042427046475
 10
226.372142240078
 20
504.2820157046476
 10
226.2852322400779
 20
503.8597887046476
 10
226.195688240078
 20
503.4375617046475
 10
226.1036272400779
 20
503.0153347046475
 10
226.009172240078
 20
502.5931077046475
 10
225.9124402400778
 20
502.1708807046475
 10
225.8135532400779
 20
501.7486537046476
 10
225.712629240078
 20
501.3264267046475
 10
225.6097892400779
 20
500.9041997046475
 10
225.5051522400778
 20
500.4819727046475
 10
225.398839240078
 20
500.0597457046476
 10
225.290968240078
 20
499.6375187046476
 10
225.1816602400778
 20
499.2152917046476
 10
225.0710342400779
 20
498.7930647046475
 10
224.959211240078
 20
498.3708377046474
 10
224.8463102400779
 20
497.9486107046475
 10
224.7324502400779
 20
497.5263837046475
 10
224.617752240078
 20
497.1041557046476
 10
224.5023352400779
 20
496.6819287046475
 10
224.386320240078
 20
496.2597017046475
 10
224.2698252400781
 20
495.8374747046475
 10
224.1529722400779
 20
495.4152477046475
 10
224.035878240078
 20
494.9930207046476
 10
223.918665240078
 20
494.5707937046476
  0
LINE
  5
FA
330
2
100
AcDbEntity
  8
OUTLINE
 62
     7
100
AcDbLine
 10
197.468665240078
 20
531.9756577046475
 30
0.0
 11
203.468665240078
 21
532.9756577046476
 31
0.0
  0
LINE
  5
FB
330
2
100
AcDbEntity
  8
OUTLINE
 62
     7
100
AcDbLine
 10
203.468665240078
 20
532.9756577046476
 30
0.0
 11
197.468665240078
 21
533.9756577046475
 31
0.0
  0
LINE
  5
FC
330
2
100
AcDbEntity
  8
OUTLINE
 62
     7
100
AcDbLine
 10
192.5985692400779
 20
549.1251757046476
 30
0.0
 11
210.3186692400778
 21
548.1521277046475
 31
0.0
  0
LINE
  5
FD
330
2
100
AcDbEntity
  8
OUTLINE
 62
     7
100
AcDbLine
 10
192.0942382400781
 20
539.9408387046475
 30
0.0
 11
210.231155240078
 21
538.9449017046476
 31
0.0
  0
ARC
  5
FE
330
2
100
AcDbEntity
  8
OUTLINE
 62
     7
100
AcDbCircle
 10
195.822254240078
 20
548.6787957046476
 30
0.0
 40
9.5
100
AcDbArc
 50
209.3225919999987
 51
246.8946670000017
  0
LINE
  5
FF
330
2
100
AcDbEntity
  8
OUTLINE
 62
     7
100
AcDbLine
 10
195.968665240078
 20
531.9756577046475
 30
0.0
 11
189.968665240078
 21
532.9756577046476
 31
0.0
  0
LINE
  5
100
330
2
100
AcDbEntity
  8
OUTLINE
 62
     7
100
AcDbLine
 10
189.968665240078
 20
532.9756577046476
 30
0.0
 11
195.968665240078
 21
533.9756577046475
 31
0.0
  0
LINE
  5
101
330
2
100
AcDbEntity
  8
OUTLINE
 62
     7
100
AcDbLine
 10
186.718665240078
 20
534.4756577046475
 30
0.0
 11
186.718665240078
 21
535.9756577046475
 31
0.0
  0
LINE
  5
102
330
2
100
AcDbEntity
  8
OUTLINE
 62
     7
100
AcDbLine
 10
185.718665240078
 20
534.4756577046475
 30
0.0
 11
186.718665240078
 21
534.4756577046475
 31
0.0
  0
LINE
  5
103
330
2
100
AcDbEntity
  8
OUTLINE
 62
     7
100
AcDbLine
 10
195.968665240078
 20
533.9756577046475
 30
0.0
 11
195.968665240078
 21
531.9756577046475
 31
0.0
  0
LINE
  5
104
330
2
100
AcDbEntity
  8
OUTLINE
 62
     7
100
AcDbLine
 10
197.468665240078
 20
533.9756577046475
 30
0.0
 11
197.468665240078
 21
531.9756577046475
 31
0.0
  0
ARC
  5
105
330
2
100
AcDbEntity
  8
OUTLINE
 62
     7
100
AcDbCircle
 10
189.1959942400781
 20
544.9568757046476
 30
0.0
 40
1.9
100
AcDbArc
 50
135.643914000001
 51
209.3225919999987
  0
ARC
  5
106
330
2
100
AcDbEntity
  8
OUTLINE
 62
     7
100
AcDbCircle
 10
198.026352240078
 20
536.3227987046475
 30
0.0
 40
14.25
100
AcDbArc
 50
115.6723959999989
 51
135.643914000001
  0
ARC
  5
107
330
2
100
AcDbEntity
  8
OUTLINE
 62
     7
100
AcDbCircle
 10
213.3292382400779
 20
543.1328797046476
 30
0.0
 40
2.0
100
AcDbArc
 50
324.3912549999998
 51
38.06993300000089
  0
ARC
  5
108
330
2
100
AcDbEntity
  8
OUTLINE
 62
     7
100
AcDbCircle
 10
212.5570082400781
 20
543.4373227046476
 30
0.0
 40
2.0
100
AcDbArc
 50
326.2660510000009
 51
37.01819200000084
  0
ARC
  5
109
330
2
100
AcDbEntity
  8
OUTLINE
 62
     7
100
AcDbCircle
 10
210.718665240078
 20
533.9756577046475
 30
0.0
 40
0.5
100
AcDbArc
 50
90.0
 51
180.0
  0
LINE
  5
10A
330
2
100
AcDbEntity
  8
OUTLINE
 62
     7
100
AcDbLine
 10
211.718665240078
 20
535.9756577046475
 30
0.0
 11
207.218665240078
 21
535.9756577046475
 31
0.0
  0
ARC
  5
10B
330
2
100
AcDbEntity
  8
OUTLINE
 62
     7
100
AcDbCircle
 10
206.8251432400778
 20
547.7908557046474
 30
0.0
 40
10.0
100
AcDbArc
 50
286.8191800000003
 51
324.3912549999998
  0
ARC
  5
10C
330
2
100
AcDbEntity
  8
OUTLINE
 62
     7
100
AcDbCircle
 10
206.319819240078
 20
547.6023517046476
 30
0.0
 40
9.5
100
AcDbArc
 50
291.9539560000028
 51
326.2660510000009
  0
ARC
  5
10D
330
2
100
AcDbEntity
  8
OUTLINE
 62
     7
100
AcDbCircle
 10
207.218665240078
 20
535.4756577046475
 30
0.0
 40
0.5
100
AcDbArc
 50
90.0
 51
180.0
  0
LINE
  5
10E
330
2
100
AcDbEntity
  8
OUTLINE
 62
     7
100
AcDbLine
 10
210.218665240078
 20
533.4756577046475
 30
0.0
 11
210.218665240078
 21
533.9756577046475
 31
0.0
  0
LINE
  5
10F
330
2
100
AcDbEntity
  8
OUTLINE
 62
     7
100
AcDbLine
 10
206.718665240078
 20
533.4756577046475
 30
0.0
 11
210.218665240078
 21
533.4756577046475
 31
0.0
  0
LINE
  5
110
330
2
100
AcDbEntity
  8
OUTLINE
 62
     7
100
AcDbLine
 10
206.718665240078
 20
535.4756577046475
 30
0.0
 11
206.718665240078
 21
533.4756577046475
 31
0.0
  0
LINE
  5
111
330
2
100
AcDbEntity
  8
OUTLINE
 62
     7
100
AcDbLine
 10
209.218665240078
 20
532.9756577046476
 30
0.0
 11
207.718665240078
 21
532.9756577046476
 31
0.0
  0
LINE
  5
112
330
2
100
AcDbEntity
  8
OUTLINE
 62
     7
100
AcDbLine
 10
211.718665240078
 20
534.4756577046475
 30
0.0
 11
211.718665240078
 21
535.9756577046475
 31
0.0
  0
LINE
  5
113
330
2
100
AcDbEntity
  8
OUTLINE
 62
     7
100
AcDbLine
 10
210.718665240078
 20
534.4756577046475
 30
0.0
 11
211.718665240078
 21
534.4756577046475
 31
0.0
  0
ARC
  5
114
330
2
100
AcDbEntity
  8
OUTLINE
 62
     7
100
AcDbCircle
 10
203.0948752400778
 20
535.1167827046475
 30
0.0
 40
15.0
100
AcDbArc
 50
38.06993300000089
 51
63.79488000000153
  0
ARC
  5
115
330
2
100
AcDbEntity
  8
OUTLINE
 62
     7
100
AcDbCircle
 10
202.7760642400779
 20
536.0619827046475
 30
0.0
 40
14.25
100
AcDbArc
 50
37.01819200000084
 51
58.04145099999765
  0
POINT
  5
116
330
2
100
AcDbEntity
  8
0
  6
CONTINUOUS
 62
     5
100
AcDbPoint
 10
196.718665240078
 20
294.4391967046476
 30
0.0
  0
ENDSEC
  0
SECTION
  2
OBJECTS
  0
DICTIONARY
  5
A
330
0
100
AcDbDictionary
  3
ACAD_COLOR
350
33
  3
ACAD_GROUP
350
2F
  3
ACAD_LAYOUT
350
F
  3
ACAD_MATERIAL
350
32
  3
ACAD_MLINESTYLE
350
30
  3
ACAD_PLOTSETTINGS
350
31
  3
ACAD_PLOTSTYLENAME
350
9
  3
ACAD_TABLESTYLE
350
34
  3
ACDBVARIABLEDICTIONARY
350
118
  3
ACDBHEADERROUNDTRIPXREC
350
137
  0
DICTIONARY
  5
18
330
17
100
AcDbDictionary
280
     1
  3
ACAD_LAYERFILTERS
360
19
  3
ACLYDICTIONARY
360
1A
  0
DICTIONARY
  5
3
330
2
100
AcDbDictionary
280
     1
  3
ACAD_LAYOUTSELFREF
360
158
  3
ACAD_SORTENTS
360
117
  0
DICTIONARY
  5
12
330
11
100
AcDbDictionary
280
     1
  3
ACAD_LAYOUTSELFREF
360
159
  0
DICTIONARY
  5
33
102
{ACAD_REACTORS
330
A
102
}
330
A
100
AcDbDictionary
  0
DICTIONARY
  5
2F
102
{ACAD_REACTORS
330
A
102
}
330
A
100
AcDbDictionary
  0
DICTIONARY
  5
F
102
{ACAD_REACTORS
330
A
102
}
330
A
100
AcDbDictionary
  0
DICTIONARY
  5
32
102
{ACAD_REACTORS
330
A
102
}
330
A
100
AcDbDictionary
  0
DICTIONARY
  5
30
102
{ACAD_REACTORS
330
A
102
}
330
A
100
AcDbDictionary
  3
STANDARD
350
36
  0
DICTIONARY
  5
31
102
{ACAD_REACTORS
330
A
102
}
330
A
100
AcDbDictionary
  0
ACDBDICTIONARYWDFLT
  5
9
102
{ACAD_REACTORS
330
A
102
}
330
A
100
AcDbDictionary
281
     1
  3
Normal
350
8
100
AcDbDictionaryWithDefault
340
8
1001
ACAD
1000
TREAT_AS_HARD
1070
     0
  0
DICTIONARY
  5
34
102
{ACAD_REACTORS
330
A
102
}
330
A
100
AcDbDictionary
  3
STANDARD
350
37
  0
DICTIONARY
  5
118
102
{ACAD_REACTORS
330
A
102
}
330
A
100
AcDbDictionary
  3
CTABLESTYLE
350
119
  3
DIMASSOC
350
128
  3
HIDETEXT
350
127
  3
PROJECTNAME
350
129
  0
DICTIONARY
  5
137
102
{ACAD_REACTORS
330
A
102
}
330
A
100
AcDbDictionary
  3
TSTACKALIGN
350
138
  3
TSTACKSIZE
350
139
  3
HYPERLINKBASE
350
13A
  3
STYLESHEET
350
13B
  3
LAYOUTDICT
350
13C
  3
PLOTSETDICT
350
13D
  3
PLOTSTYLNAMDICT
350
13E
  3
LWETCUNION
350
13F
  3
INSUNITS
350
140
  3
CEPSNTYPE
350
141
  3
FINGERPRINTGUID
350
142
  3
VERSIONGUID
350
143
  3
PSVPSCALE
350
144
  3
DIMSTYLEDATA
350
145
  3
PUCSORTHOREF
350
146
  3
PUCSORTHOVIEW
350
147
  3
PUCSBASE
350
148
  3
PUCSORGTOP
350
149
  3
PUCSORGBOTTOM
350
14A
  3
PUCSORGLEFT
350
14B
  3
PUCSORGRIGHT
350
14C
  3
PUCSORGFRONT
350
14D
  3
PUCSORGBACK
350
14E
  3
UCSORTHOREF
350
14F
  3
UCSORTHOVIEW
350
150
  3
UCSBASE
350
151
  3
UCSORGTOP
350
152
  3
UCSORGBOTTOM
350
153
  3
UCSORGLEFT
350
154
  3
UCSORGRIGHT
350
155
  3
UCSORGFRONT
350
156
  3
UCSORGBACK
350
157
  0
DICTIONARY
  5
19
102
{ACAD_REACTORS
330
18
102
}
330
18
100
AcDbDictionary
  0
DICTIONARY
  5
1A
102
{ACAD_REACTORS
330
18
102
}
330
18
100
AcDbDictionary
1001
ACAD
1000
<All
  0
XRECORD
  5
158
102
{ACAD_REACTORS
330
3
102
}
330
3
100
AcDbXrecord
340
2
  0
SORTENTSTABLE
  5
117
102
{ACAD_REACTORS
330
3
102
}
330
3
100
AcDbSortentsTable
330
2
  0
XRECORD
  5
159
102
{ACAD_REACTORS
330
12
102
}
330
12
100
AcDbXrecord
340
11
  0
MLINESTYLE
  5
36
102
{ACAD_REACTORS
330
30
102
}
330
30
100
AcDbMlineStyle
  2
STANDARD
 70
     0
  3

 62
   256
 51
90.0
 52
90.0
 71
     2
 49
0.5
 62
   256
  6
BYLAYER
 49
-0.5
 62
   256
  6
BYLAYER
  0
ACDBPLACEHOLDER
  5
8
102
{ACAD_REACTORS
330
9
102
}
330
9
100
AcDbPlaceHolder
280
     0
  0
ACAD_PROXY_OBJECT
  5
37
102
{ACAD_REACTORS
330
34
102
}
330
34
100
AcDbProxyObject
 90
      499
 91
      506
 93
     1841
310
4214DD185B99185C9928B81E85EB51B8AE3F2E07A17AD46E2B8FC02B5E8DC0F42B1CFD028000000C1008070000C3001FDFF8000000C1003FBFF000000182007F7FE00000030400FEFFC00000060801FDFF8000000C1003FBFF00000018200000000000000681FA0B0000001820100E000186003FBFF000000182007F7FE000
310
00030400FEFFC00000060801FDFF8000000C1003FBFF000000182007F7FE000000304000AD7A3703D0AC73F4160000003040201C00030C007F7FE00000030400FEFFC00000060801FDFF8000000C1003FBFF000000182007F7FE00000030400FEFFC000000608050
340
1C
340
1C
340
1C
 94
        0
1001
ACAD
1000
AcadProxyRoundTripData
1071
      503
1071
   393239
1070
     0
  0
DICTIONARYVAR
  5
119
102
{ACAD_REACTORS
330
118
102
}
330
118
100
DictionaryVariables
280
     0
  1
STANDARD
  0
DICTIONARYVAR
  5
128
102
{ACAD_REACTORS
330
118
102
}
330
118
100
DictionaryVariables
280
     0
  1
1
  0
DICTIONARYVAR
  5
127
102
{ACAD_REACTORS
330
118
102
}
330
118
100
DictionaryVariables
280
     0
  1
1
  0
DICTIONARYVAR
  5
129
102
{ACAD_REACTORS
330
118
102
}
330
118
100
DictionaryVariables
280
     0
  1

  0
XRECORD
  5
138
102
{ACAD_REACTORS
330
137
102
}
330
137
100
AcDbXrecord
 90
        1
  0
XRECORD
  5
139
102
{ACAD_REACTORS
330
137
102
}
330
137
100
AcDbXrecord
 90
       70
  0
XRECORD
  5
13A
102
{ACAD_REACTORS
330
137
102
}
330
137
100
AcDbXrecord
  1

  0
XRECORD
  5
13B
102
{ACAD_REACTORS
330
137
102
}
330
137
100
AcDbXrecord
  1

  0
XRECORD
  5
13C
102
{ACAD_REACTORS
330
137
102
}
330
137
100
AcDbXrecord
340
F
  0
XRECORD
  5
13D
102
{ACAD_REACTORS
330
137
102
}
330
137
100
AcDbXrecord
340
31
  0
XRECORD
  5
13E
102
{ACAD_REACTORS
330
137
102
}
330
137
100
AcDbXrecord
340
9
  0
XRECORD
  5
13F
102
{ACAD_REACTORS
330
137
102
}
330
137
100
AcDbXrecord
 90
    10781
  0
XRECORD
  5
140
102
{ACAD_REACTORS
330
137
102
}
330
137
100
AcDbXrecord
 90
        0
  0
XRECORD
  5
141
102
{ACAD_REACTORS
330
137
102
}
330
137
100
AcDbXrecord
 90
        0
  0
XRECORD
  5
142
102
{ACAD_REACTORS
330
137
102
}
330
137
100
AcDbXrecord
  1
{42889AD3-5BD2-43C4-9EB3-F8AE928D9CB2}
  0
XRECORD
  5
143
102
{ACAD_REACTORS
330
137
102
}
330
137
100
AcDbXrecord
  1
{48C90C5A-9DE6-450F-8E25-24976BDE5F75}
  0
XRECORD
  5
144
102
{ACAD_REACTORS
330
137
102
}
330
137
100
AcDbXrecord
 40
0.0
  0
XRECORD
  5
145
102
{ACAD_REACTORS
330
137
102
}
330
137
100
AcDbXrecord
1000
DSTYLE
1002
{
1070
    79
 70
     2
1070
   341
340
28
1070
   342
340
28
1002
}
  0
XRECORD
  5
146
102
{ACAD_REACTORS
330
137
102
}
330
137
100
AcDbXrecord
340
0
  0
XRECORD
  5
147
102
{ACAD_REACTORS
330
137
102
}
330
137
100
AcDbXrecord
 70
     0
  0
XRECORD
  5
148
102
{ACAD_REACTORS
330
137
102
}
330
137
100
AcDbXrecord
340
0
  0
XRECORD
  5
149
102
{ACAD_REACTORS
330
137
102
}
330
137
100
AcDbXrecord
 10
0.0
 20
0.0
 30
0.0
  0
XRECORD
  5
14A
102
{ACAD_REACTORS
330
137
102
}
330
137
100
AcDbXrecord
 10
0.0
 20
0.0
 30
0.0
  0
XRECORD
  5
14B
102
{ACAD_REACTORS
330
137
102
}
330
137
100
AcDbXrecord
 10
0.0
 20
0.0
 30
0.0
  0
XRECORD
  5
14C
102
{ACAD_REACTORS
330
137
102
}
330
137
100
AcDbXrecord
 10
0.0
 20
0.0
 30
0.0
  0
XRECORD
  5
14D
102
{ACAD_REACTORS
330
137
102
}
330
137
100
AcDbXrecord
 10
0.0
 20
0.0
 30
0.0
  0
XRECORD
  5
14E
102
{ACAD_REACTORS
330
137
102
}
330
137
100
AcDbXrecord
 10
0.0
 20
0.0
 30
0.0
  0
XRECORD
  5
14F
102
{ACAD_REACTORS
330
137
102
}
330
137
100
AcDbXrecord
340
0
  0
XRECORD
  5
150
102
{ACAD_REACTORS
330
137
102
}
330
137
100
AcDbXrecord
 70
     0
  0
XRECORD
  5
151
102
{ACAD_REACTORS
330
137
102
}
330
137
100
AcDbXrecord
340
0
  0
XRECORD
  5
152
102
{ACAD_REACTORS
330
137
102
}
330
137
100
AcDbXrecord
 10
0.0
 20
0.0
 30
0.0
  0
XRECORD
  5
153
102
{ACAD_REACTORS
330
137
102
}
330
137
100
AcDbXrecord
 10
0.0
 20
0.0
 30
0.0
  0
XRECORD
  5
154
102
{ACAD_REACTORS
330
137
102
}
330
137
100
AcDbXrecord
 10
0.0
 20
0.0
 30
0.0
  0
XRECORD
  5
155
102
{ACAD_REACTORS
330
137
102
}
330
137
100
AcDbXrecord
 10
0.0
 20
0.0
 30
0.0
  0
XRECORD
  5
156
102
{ACAD_REACTORS
330
137
102
}
330
137
100
AcDbXrecord
 10
0.0
 20
0.0
 30
0.0
  0
XRECORD
  5
157
102
{ACAD_REACTORS
330
137
102
}
330
137
100
AcDbXrecord
 10
0.0
 20
0.0
 30
0.0
  0
ENDSEC
  0
EOF
