  0
SECTION
  2
HEADER
  9
$ACADVER
  1
AC1014
  9
$ACADMAINTVER
 70
     9
  9
$DWGCODEPAGE
  3
ANSI_932
  9
$INSBASE
 10
662.153534586904
 20
290.6618749999998
 30
0.0
  9
$EXTMIN
 10
402.6112363804577
 20
286.8458091877523
 30
-0.00000001
  9
$EXTMAX
 10
694.289162879134
 20
500.0275902495681
 30
0.00000001
  9
$LIMMIN
 10
36.0
 20
25.5
  9
$LIMMAX
 10
1224.0
 20
865.4999999999999
  9
$ORTHOMODE
 70
     1
  9
$REGENMODE
 70
     1
  9
$FILLMODE
 70
     1
  9
$QTEXTMODE
 70
     0
  9
$MIRRTEXT
 70
     0
  9
$DRAGMODE
 70
     2
  9
$LTSCALE
 40
2.0
  9
$OSMODE
 70
   513
  9
$ATTMODE
 70
     1
  9
$TEXTSIZE
 40
0.2
  9
$TRACEWID
 40
0.05
  9
$TEXTSTYLE
  7
ｽﾀｲﾙ1
  9
$CLAYER
  8
OUTLINE
  9
$CELTYPE
  6
BYLAYER
  9
$CECOLOR
 62
   256
  9
$CELTSCALE
 40
1.0
  9
$DELOBJ
 70
     1
  9
$DISPSILH
 70
     0
  9
$DIMSCALE
 40
3.0
  9
$DIMASZ
 40
2.0
  9
$DIMEXO
 40
2.0
  9
$DIMDLI
 40
7.0
  9
$DIMRND
 40
0.0
  9
$DIMDLE
 40
0.0
  9
$DIMEXE
 40
0.5
  9
$DIMTP
 40
0.0
  9
$DIMTM
 40
0.0
  9
$DIMTXT
 40
2.0
  9
$DIMCEN
 40
0.09
  9
$DIMTSZ
 40
0.0
  9
$DIMTOL
 70
     0
  9
$DIMLIM
 70
     0
  9
$DIMTIH
 70
     0
  9
$DIMTOH
 70
     0
  9
$DIMSE1
 70
     0
  9
$DIMSE2
 70
     0
  9
$DIMTAD
 70
     1
  9
$DIMZIN
 70
     8
  9
$DIMBLK
  1
OPEN
  9
$DIMASO
 70
     1
  9
$DIMSHO
 70
     1
  9
$DIMPOST
  1

  9
$DIMAPOST
  1

  9
$DIMALT
 70
     0
  9
$DIMALTD
 70
     2
  9
$DIMALTF
 40
0.03937
  9
$DIMLFAC
 40
1.0
  9
$DIMTOFL
 70
     1
  9
$DIMTVP
 40
0.0
  9
$DIMTIX
 70
     0
  9
$DIMSOXD
 70
     0
  9
$DIMSAH
 70
     0
  9
$DIMBLK1
  1

  9
$DIMBLK2
  1

  9
$DIMSTYLE
  2
G1
  9
$DIMCLRD
 70
     0
  9
$DIMCLRE
 70
     0
  9
$DIMCLRT
 70
     7
  9
$DIMTFAC
 40
1.0
  9
$DIMGAP
 40
0.8
  9
$DIMJUST
 70
     0
  9
$DIMSD1
 70
     0
  9
$DIMSD2
 70
     0
  9
$DIMTOLJ
 70
     1
  9
$DIMTZIN
 70
     0
  9
$DIMALTZ
 70
     0
  9
$DIMALTTZ
 70
     0
  9
$DIMFIT
 70
     3
  9
$DIMUPT
 70
     0
  9
$DIMUNIT
 70
     2
  9
$DIMDEC
 70
     2
  9
$DIMTDEC
 70
     2
  9
$DIMALTU
 70
     2
  9
$DIMALTTD
 70
     2
  9
$DIMTXSTY
  7
STANDARD
  9
$DIMAUNIT
 70
     0
  9
$LUNITS
 70
     2
  9
$LUPREC
 70
     4
  9
$SKETCHINC
 40
0.1
  9
$FILLETRAD
 40
5.0
  9
$AUNITS
 70
     0
  9
$AUPREC
 70
     0
  9
$MENU
  1
.
  9
$ELEVATION
 40
0.0
  9
$PELEVATION
 40
0.0
  9
$THICKNESS
 40
0.0
  9
$LIMCHECK
 70
     0
  9
$BLIPMODE
 70
     0
  9
$CHAMFERA
 40
0.0
  9
$CHAMFERB
 40
0.0
  9
$CHAMFERC
 40
0.0
  9
$CHAMFERD
 40
0.0
  9
$SKPOLY
 70
     0
  9
$TDCREATE
 40
2452110.000000000
  9
$TDUPDATE
 40
2453944.013902083
  9
$TDINDWG
 40
0.5248801273
  9
$TDUSRTIMER
 40
0.5248799537
  9
$USRTIMER
 70
     1
  9
$ANGBASE
 50
0.0
  9
$ANGDIR
 70
     0
  9
$PDMODE
 70
     3
  9
$PDSIZE
 40
0.0
  9
$PLINEWID
 40
0.0
  9
$COORDS
 70
     1
  9
$SPLFRAME
 70
     0
  9
$SPLINETYPE
 70
     6
  9
$SPLINESEGS
 70
     8
  9
$ATTDIA
 70
     0
  9
$ATTREQ
 70
     1
  9
$HANDLING
 70
 10241
  9
$HANDSEED
  5
FD
  9
$SURFTAB1
 70
     6
  9
$SURFTAB2
 70
     6
  9
$SURFTYPE
 70
     6
  9
$SURFU
 70
     6
  9
$SURFV
 70
     6
  9
$UCSNAME
  2

  9
$UCSORG
 10
0.0
 20
0.0
 30
0.0
  9
$UCSXDIR
 10
1.0
 20
0.0
 30
0.0
  9
$UCSYDIR
 10
0.0
 20
1.0
 30
0.0
  9
$PUCSNAME
  2

  9
$PUCSORG
 10
0.0
 20
0.0
 30
0.0
  9
$PUCSXDIR
 10
1.0
 20
0.0
 30
0.0
  9
$PUCSYDIR
 10
0.0
 20
1.0
 30
0.0
  9
$USERI1
 70
     0
  9
$USERI2
 70
     0
  9
$USERI3
 70
     0
  9
$USERI4
 70
     0
  9
$USERI5
 70
     0
  9
$USERR1
 40
0.0
  9
$USERR2
 40
0.0
  9
$USERR3
 40
0.0
  9
$USERR4
 40
0.0
  9
$USERR5
 40
0.0
  9
$WORLDVIEW
 70
     1
  9
$SHADEDGE
 70
     3
  9
$SHADEDIF
 70
    70
  9
$TILEMODE
 70
     1
  9
$MAXACTVP
 70
    48
  9
$PINSBASE
 10
0.0
 20
0.0
 30
0.0
  9
$PLIMCHECK
 70
     0
  9
$PEXTMIN
 10
1.000000000000000E+20
 20
1.000000000000000E+20
 30
1.000000000000000E+20
  9
$PEXTMAX
 10
-1.000000000000000E+20
 20
-1.000000000000000E+20
 30
-1.000000000000000E+20
  9
$PLIMMIN
 10
0.0
 20
0.0
  9
$PLIMMAX
 10
12.0
 20
9.0
  9
$UNITMODE
 70
     0
  9
$VISRETAIN
 70
     1
  9
$PLINEGEN
 70
     0
  9
$PSLTSCALE
 70
     1
  9
$TREEDEPTH
 70
  3020
  9
$PICKSTYLE
 70
     1
  9
$CMLSTYLE
  2
STANDARD
  9
$CMLJUST
 70
     0
  9
$CMLSCALE
 40
1.0
  9
$PROXYGRAPHICS
 70
     1
  9
$MEASUREMENT
 70
     0
  0
ENDSEC
  0
SECTION
  2
CLASSES
  0
CLASS
  1
ACDBDICTIONARYWDFLT
  2
AcDbDictionaryWithDefault
  3
AutoCAD 2000
 90
        0
280
     0
281
     0
  0
CLASS
  1
ACDBPLACEHOLDER
  2
AcDbPlaceHolder
  3
AutoCAD 2000
 90
        0
280
     0
281
     0
  0
CLASS
  1
LAYOUT
  2
AcDbLayout
  3
AutoCAD 2000
 90
        0
280
     0
281
     0
  0
CLASS
  1
TABLESTYLE
  2
AcDbTableStyle
  3
ObjectDBX Classes
 90
     2047
280
     0
281
     0
  0
CLASS
  1
SORTENTSTABLE
  2
AcDbSortentsTable
  3
AutoCAD 2000
 90
        0
280
     0
281
     0
  0
CLASS
  1
DICTIONARYVAR
  2
AcDbDictionaryVar
  3
AutoCAD 2000
 90
        0
280
     0
281
     0
  0
CLASS
  1
ACAD_PROXY_OBJECT_WRAPPER
  2
AcDbProxyObjectWrapper
  3
AutoCAD 2000
 90
        0
280
     0
281
     0
  0
CLASS
  1
LONG_TRANSACTION
  2
AcDbLongTransaction
  3
AutoCAD 2000
 90
        0
280
     0
281
     0
  0
CLASS
  1
LWPOLYLINE
  2
AcDbPolyline
  3
AutoCAD 2000
 90
        0
280
     0
281
     1
  0
CLASS
  1
HATCH
  2
AcDbHatch
  3
AutoCAD 2000
 90
        0
280
     0
281
     1
  0
CLASS
  1
XRECORD
  2
AcDbXrecord
  3
AutoCAD 2000
 90
        0
280
     0
281
     0
  0
CLASS
  1
WIPEOUT
  2
AcDbWipeout
  3
"WipeOut|Product Desc: Object Enabler for WipeOut entity^I^I^I^I^I^I|Company: Autodesk, Inc.^I^I^I^I^I^I|WEB Address: www.autodesk.com"
 90
      127
280
     0
281
     1
  0
CLASS
  1
WIPEOUTVARIABLES
  2
AcDbWipeoutVariables
  3
"WipeOut|Product Desc:     WipeOut Dbx Application|Company:          Autodesk, Inc.|WEB Address:      www.autodesk.com"
 90
        0
280
     0
281
     0
  0
CLASS
  1
LONG_TRANSACTION
  2
AcDbLongTransaction
  3
AutoCAD 2000
 90
        0
280
     0
281
     0
  0
CLASS
  1
LWPOLYLINE
  2
AcDbPolyline
  3
AutoCAD 2000
 90
        0
280
     0
281
     1
  0
CLASS
  1
HATCH
  2
AcDbHatch
  3
AutoCAD 2000
 90
        0
280
     0
281
     1
  0
CLASS
  1
XRECORD
  2
AcDbXrecord
  3
AutoCAD 2000
 90
        0
280
     0
281
     0
  0
ENDSEC
  0
SECTION
  2
TABLES
  0
TABLE
  2
VPORT
  5
23
330
0
100
AcDbSymbolTable
 70
     2
  0
VPORT
  5
D9
330
23
100
AcDbSymbolTableRecord
100
AcDbViewportTableRecord
  2
*ACTIVE
 70
     0
 10
0.0
 20
0.0
 11
1.0
 21
1.0
 12
553.6605954874858
 22
393.4293842193778
 13
0.0
 23
0.0
 14
1.0
 24
1.0
 15
0.0
 25
0.0
 16
0.0
 26
0.0
 36
1.0
 17
0.0
 27
0.0
 37
0.0
 40
215.9791186847686
 41
1.933867735470941
 42
50.0
 43
0.0
 44
0.0
 50
0.0
 51
0.0
 71
     0
 72
   100
 73
     1
 74
     1
 75
     0
 76
     0
 77
     0
 78
     0
  0
ENDTAB
  0
TABLE
  2
LTYPE
  5
1E
330
0
100
AcDbSymbolTable
 70
     1
  0
LTYPE
  5
1F
330
1E
100
AcDbSymbolTableRecord
100
AcDbLinetypeTableRecord
  2
BYBLOCK
 70
     0
  3

 72
    65
 73
     0
 40
0.0
  0
LTYPE
  5
20
330
1E
100
AcDbSymbolTableRecord
100
AcDbLinetypeTableRecord
  2
BYLAYER
 70
     0
  3

 72
    65
 73
     0
 40
0.0
  0
LTYPE
  5
C
330
1E
100
AcDbSymbolTableRecord
100
AcDbLinetypeTableRecord
  2
CONTINUOUS
 70
     0
  3
Solid line
 72
    65
 73
     0
 40
0.0
  0
ENDTAB
  0
TABLE
  2
LAYER
  5
17
102
{ACAD_XDICTIONARY
360
18
102
}
330
0
100
AcDbSymbolTable
 70
     2
  0
LAYER
  5
7
330
17
100
AcDbSymbolTableRecord
100
AcDbLayerTableRecord
  2
0
 70
     0
 62
     7
  6
CONTINUOUS
  0
LAYER
  5
35
330
17
100
AcDbSymbolTableRecord
100
AcDbLayerTableRecord
  2
OUTLINE
 70
     0
 62
     7
  6
CONTINUOUS
1001
ACAECLAYERSTANDARD
1000

1000

  0
ENDTAB
  0
TABLE
  2
STYLE
  5
1B
330
0
100
AcDbSymbolTable
 70
     2
  0
STYLE
  5
1C
330
1B
100
AcDbSymbolTableRecord
100
AcDbTextStyleTableRecord
  2
STANDARD
 70
     0
 40
0.0
 41
1.0
 50
0.0
 71
     0
 42
0.2
  3
romans.shx
  4
bigfont.shx
  0
STYLE
  5
37
330
1B
100
AcDbSymbolTableRecord
100
AcDbTextStyleTableRecord
  2
ｽﾀｲﾙ1
 70
     0
 40
0.0
 41
1.0
 50
0.0
 71
     0
 42
0.2
  3
MS PGothic.ttf
  4

1001
ACAD
1000
MS PGothic
1071
    32818
  0
ENDTAB
  0
TABLE
  2
VIEW
  5
21
330
0
100
AcDbSymbolTable
 70
     0
  0
ENDTAB
  0
TABLE
  2
UCS
  5
22
330
0
100
AcDbSymbolTable
 70
     0
  0
ENDTAB
  0
TABLE
  2
APPID
  5
25
330
0
100
AcDbSymbolTable
 70
     3
  0
APPID
  5
B
330
25
100
AcDbSymbolTableRecord
100
AcDbRegAppTableRecord
  2
ACAD
 70
     0
  0
APPID
  5
36
330
25
100
AcDbSymbolTableRecord
100
AcDbRegAppTableRecord
  2
ACAECLAYERSTANDARD
 70
     0
  0
APPID
  5
10
330
25
100
AcDbSymbolTableRecord
100
AcDbRegAppTableRecord
  2
ACAD_PSEXT
 70
     0
  0
ENDTAB
  0
TABLE
  2
DIMSTYLE
  5
26
330
0
100
AcDbSymbolTable
 70
     1
  0
DIMSTYLE
105
27
330
26
100
AcDbSymbolTableRecord
100
AcDbDimStyleTableRecord
  2
G1
 70
     0
  3

  4

  5
OPEN
  6

  7

 40
3.0
 41
2.0
 42
2.0
 43
7.0
 44
0.5
 45
0.0
 46
0.0
 47
0.0
 48
0.0
140
2.0
141
0.09
142
0.0
143
0.03937
144
1.0
145
0.0
146
1.0
147
0.8
 71
     0
 72
     0
 73
     0
 74
     0
 75
     0
 76
     0
 77
     1
 78
     8
170
     0
171
     2
172
     1
173
     0
174
     0
175
     0
176
     0
177
     0
178
     7
270
     2
271
     2
272
     2
273
     2
274
     2
340
1C
275
     0
280
     0
281
     0
282
     0
283
     1
284
     0
285
     0
286
     0
287
     3
288
     0
  0
ENDTAB
  0
TABLE
  2
BLOCK_RECORD
  5
1
330
0
100
AcDbSymbolTable
 70
     1
  0
BLOCK_RECORD
  5
2
102
{ACAD_XDICTIONARY
360
3
102
}
330
1
100
AcDbSymbolTableRecord
100
AcDbBlockTableRecord
  2
*MODEL_SPACE
  0
BLOCK_RECORD
  5
11
102
{ACAD_XDICTIONARY
360
12
102
}
330
1
100
AcDbSymbolTableRecord
100
AcDbBlockTableRecord
  2
*PAPER_SPACE
  0
BLOCK_RECORD
  5
28
330
1
100
AcDbSymbolTableRecord
100
AcDbBlockTableRecord
  2
_OPEN
  0
ENDTAB
  0
ENDSEC
  0
SECTION
  2
BLOCKS
  0
BLOCK
  5
6
330
2
100
AcDbEntity
  8
0
100
AcDbBlockBegin
  2
*MODEL_SPACE
 70
     0
 10
0.0
 20
0.0
 30
0.0
  3
*MODEL_SPACE
  1

  0
ENDBLK
  5
D
330
2
100
AcDbEntity
  8
0
100
AcDbBlockEnd
  0
BLOCK
  5
14
330
11
100
AcDbEntity
 67
     1
  8
0
100
AcDbBlockBegin
  2
*PAPER_SPACE
 70
     0
 10
0.0
 20
0.0
 30
0.0
  3
*PAPER_SPACE
  1

  0
ENDBLK
  5
15
330
11
100
AcDbEntity
 67
     1
  8
0
100
AcDbBlockEnd
  0
BLOCK
  5
29
330
28
100
AcDbEntity
  8
0
100
AcDbBlockBegin
  2
_OPEN
 70
     0
 10
0.0
 20
0.0
 30
0.0
  3
_OPEN
  1

  0
LINE
  5
2A
330
28
100
AcDbEntity
  8
0
 62
     0
100
AcDbLine
 10
-0.9659259999999999
 20
0.258819
 30
0.0
 11
0.0
 21
0.0
 31
0.0
  0
LINE
  5
2B
330
28
100
AcDbEntity
  8
0
 62
     0
100
AcDbLine
 10
0.0
 20
0.0
 30
0.0
 11
-0.9659259999999999
 21
-0.258819
 31
0.0
  0
LINE
  5
2C
330
28
100
AcDbEntity
  8
0
 62
     0
100
AcDbLine
 10
0.0
 20
0.0
 30
0.0
 11
-1.0
 21
0.0
 31
0.0
  0
ENDBLK
  5
2D
330
28
100
AcDbEntity
  8
0
100
AcDbBlockEnd
  0
ENDSEC
  0
SECTION
  2
ENTITIES
  0
ARC
  5
3A
330
2
100
AcDbEntity
  8
OUTLINE
  6
CONTINUOUS
100
AcDbCircle
 10
23.0997529672777
 20
-296.5984030445573
 30
0.0
 40
901.6365686537724
100
AcDbArc
 50
44.64088316140073
 51
56.42871884659964
  0
ARC
  5
3B
330
2
100
AcDbEntity
  8
OUTLINE
  6
CONTINUOUS
100
AcDbCircle
 10
66.97113285591568
 20
-206.6167819755932
 30
0.0
 40
818.485640655702
100
AcDbArc
 50
47.04768927609921
 51
55.27154534540111
  0
ARC
  5
3C
330
2
100
AcDbEntity
  8
OUTLINE
  6
CONTINUOUS
100
AcDbCircle
 10
64.41209351296368
 20
-220.5927651011993
 30
0.0
 40
801.4547276922417
100
AcDbArc
 50
48.58484201639975
 51
54.83301300000067
  0
LINE
  5
3D
330
2
100
AcDbEntity
  8
OUTLINE
  6
CONTINUOUS
100
AcDbLine
 10
633.1002831482326
 20
397.2557830458266
 30
0.0
 11
633.1008077019547
 21
412.2831378636574
 31
0.0
  0
LINE
  5
3E
330
2
100
AcDbEntity
  8
OUTLINE
  6
CONTINUOUS
100
AcDbLine
 10
691.2062614718531
 20
412.2831378636574
 30
0.0
 11
691.2067860251745
 21
397.2557830458266
 31
0.0
  0
SPLINE
  5
3F
330
2
100
AcDbEntity
  8
OUTLINE
  6
CONTINUOUS
100
AcDbSpline
210
0.0
220
0.0
230
1.0
 70
    12
 71
     3
 72
    40
 73
    36
 74
     0
 42
0.0000000001
 43
0.0000000001
 40
0.0
 40
0.0
 40
0.0
 40
0.0
 40
0.0570986624733608
 40
0.0861030374622828
 40
0.1063875435026705
 40
0.1548118005492402
 40
0.1852012492727962
 40
0.225292438259291
 40
0.2649377780126931
 40
0.2919249681591255
 40
0.338189128999655
 40
0.3629143609846866
 40
0.3999465160825789
 40
0.4141267388363445
 40
0.4520773331279015
 40
0.4906640746936797
 40
0.5119561755807994
 40
0.5360192057366949
 40
0.5566265184288058
 40
0.594244274454412
 40
0.6261189304083433
 40
0.660020830528606
 40
0.703864924824917
 40
0.7385952743234352
 40
0.7676866095311646
 40
0.793003234738407
 40
0.8225144096968609
 40
0.8564758355340064
 40
0.8853685193217543
 40
0.9027860219502128
 40
0.9478356695213696
 40
0.9736224041427441
 40
0.9942216164789387
 40
0.9942216164789387
 40
1.0
 40
1.0
 40
1.0
 40
1.0
 10
650.0777004927447
 20
325.5518131946677
 30
0.0
 41
1.0
 10
650.0772768977217
 20
325.4532853185523
 30
0.0
 41
1.0
 10
650.0770959566417
 20
325.2958757791333
 30
0.0
 41
1.0
 10
650.0765325507434
 20
325.084257599574
 30
0.0
 41
1.0
 10
650.0753047098823
 20
324.8800855149815
 30
0.0
 41
1.0
 10
650.0727508612917
 20
324.6577747135066
 30
0.0
 41
1.0
 10
650.067783354664
 20
324.3675594375515
 30
0.0
 41
1.0
 10
650.0619331822617
 20
324.0772135936321
 30
0.0
 41
1.0
 10
650.0582264230253
 20
323.7747412623162
 30
0.0
 41
1.0
 10
650.0559353569298
 20
323.4385882301263
 30
0.0
 41
1.0
 10
650.0553320168164
 20
323.1301402392648
 30
0.0
 41
1.0
 10
650.0558238675194
 20
322.7725624418567
 30
0.0
 41
0.9999999999999998
 10
650.0567523648093
 20
322.5099285928934
 30
0.0
 41
1.0
 10
650.0582107170653
 20
322.1910037055656
 30
0.0
 41
1.0
 10
650.0599933546971
 20
321.8552534070846
 30
0.0
 41
1.0
 10
650.0620146830432
 20
321.4756799583221
 30
0.0
 41
0.9999999999999996
 10
650.0635348663555
 20
321.1386135497077
 30
0.0
 41
1.0
 10
650.0645401418324
 20
320.8670024281266
 30
0.0
 41
1.0
 10
650.0656117338968
 20
320.5201255478486
 30
0.0
 41
1.0
 10
650.0665630065149
 20
320.1293189480741
 30
0.0
 41
1.0
 10
650.0674643229032
 20
319.6671851396004
 30
0.0
 41
1.0
 10
650.0683124311851
 20
319.1646925937392
 30
0.0
 41
1.0
 10
650.0691386954554
 20
318.6355118052659
 30
0.0
 41
1.0
 10
650.0699305127527
 20
318.1180158578413
 30
0.0
 41
1.0
 10
650.070569143332
 20
317.6832749402843
 30
0.0
 41
1.0
 10
650.0711237593791
 20
317.2696770026488
 30
0.0
 41
1.0
 10
650.071596908582
 20
316.8280997568546
 30
0.0
 41
1.0
 10
650.0718994027798
 20
316.3649326163481
 30
0.0
 41
1.0
 10
650.0717356803741
 20
315.9598012917679
 30
0.0
 41
1.0
 10
650.0715193037222
 20
315.4984329256373
 30
0.0
 41
1.0
 10
650.0684651468166
 20
315.0470741136488
 30
0.0
 41
1.0
 10
650.0730560061067
 20
314.5693613836306
 30
0.0
 41
1.0
 10
650.0840594835485
 20
314.3212278917157
 30
0.0
 41
0.9999999999999904
 10
650.0924316185432
 20
314.1823011743213
 30
0.0
 41
0.9999999999999975
 10
650.0944687246754
 20
314.1508319950216
 30
0.0
 41
1.0
 10
650.0965664543322
 20
314.1204524207898
 30
0.0
 41
1.0
  0
SPLINE
  5
40
330
2
100
AcDbEntity
  8
OUTLINE
  6
CONTINUOUS
100
AcDbSpline
210
0.0
220
0.0
230
1.0
 70
    12
 71
     3
 72
    37
 73
    33
 74
     0
 42
0.0000000001
 43
0.0000000001
 40
0.0
 40
0.0
 40
0.0
 40
0.0
 40
0.0347942605150161
 40
0.0654421031719872
 40
0.1155245898857319
 40
0.1756444866240821
 40
0.2483043245539337
 40
0.2829219306667126
 40
0.2829219306667126
 40
0.3167512459961385
 40
0.3677390626166716
 40
0.4052629309858168
 40
0.4532938285186395
 40
0.4815528000689401
 40
0.5080189652609493
 40
0.5516017024186306
 40
0.5910351460816746
 40
0.621972739865655
 40
0.6557008160317768
 40
0.6874951567491379
 40
0.7239710087884067
 40
0.7617159147113443
 40
0.7929510923837269
 40
0.8116775845255553
 40
0.8406283697836782
 40
0.8717866375865876
 40
0.8956367216940314
 40
0.9162433077764784
 40
0.9570470668921327
 40
0.9997228627810812
 40
0.9997228627810812
 40
1.0
 40
1.0
 40
1.0
 40
1.0
 10
650.0948199499687
 20
314.1461965304138
 30
0.0
 41
1.0
 10
650.096649562548
 20
314.0314088548078
 30
0.0
 41
1.0
 10
650.0998812684238
 20
313.8431604476739
 30
0.0
 41
1.0
 10
650.1156302154231
 20
313.4832271871101
 30
0.0
 41
1.0
 10
650.142398795047
 20
313.0621763987243
 30
0.0
 41
0.9999999999999998
 10
650.1874352881557
 20
312.5381522217746
 30
0.0
 41
0.9999999999999998
 10
650.218700695314
 20
312.033603822595
 30
0.0
 41
1.0
 10
650.2897611945106
 20
311.6842037688249
 30
0.0
 41
1.0
 10
650.3375978414465
 20
311.4519560571828
 30
0.0
 41
1.0
 10
650.3975978330378
 20
311.2101148508396
 30
0.0
 41
1.0
 10
650.5137333435628
 20
310.8369248148248
 30
0.0
 41
1.0
 10
650.6640801263586
 20
310.4459580735466
 30
0.0
 41
0.9999999999999998
 10
650.8114215813058
 20
310.1231010931213
 30
0.0
 41
1.0
 10
650.9606782996248
 20
309.8419588808936
 30
0.0
 41
1.0
 10
651.1163997059261
 20
309.578288379176
 30
0.0
 41
1.0
 10
651.3112415579107
 20
309.2906066154764
 30
0.0
 41
1.0
 10
651.5394541766855
 20
309.0067051699613
 30
0.0
 41
1.0
 10
651.7675334289852
 20
308.7623415190346
 30
0.0
 41
1.0
 10
651.9967057716621
 20
308.5488706859519
 30
0.0
 41
1.0
 10
652.2552549878746
 20
308.3406992441596
 30
0.0
 41
1.0
 10
652.5416542922019
 20
308.1436778967033
 30
0.0
 41
1.0
 10
652.8431321794571
 20
307.9705813252968
 30
0.0
 41
1.0
 10
653.1046201421758
 20
307.8453878925446
 30
0.0
 41
1.0
 10
653.3435950403159
 20
307.7462854767773
 30
0.0
 41
0.9999999999999996
 10
653.5900445522173
 20
307.6583770141936
 30
0.0
 41
1.0
 10
653.8583978358854
 20
307.5813378750466
 30
0.0
 41
1.0
 10
654.1032279446227
 20
307.5259338951763
 30
0.0
 41
1.0
 10
654.3773184489133
 20
307.4771010354749
 30
0.0
 41
1.0
 10
654.7301867317362
 20
307.4338535350406
 30
0.0
 41
1.0
 10
654.9895086517126
 20
307.4276879687478
 30
0.0
 41
1.0
 10
655.1347056065274
 20
307.4264279850928
 30
0.0
 41
1.0
 10
655.135642433804
 20
307.4264198555348
 30
0.0
 41
1.0
 10
655.1365792610797
 20
307.4264117259775
 30
0.0
 41
1.0
  0
SPLINE
  5
41
330
2
100
AcDbEntity
  8
OUTLINE
  6
CONTINUOUS
100
AcDbSpline
210
0.0
220
0.0
230
1.0
 70
    12
 71
     3
 72
    72
 73
    68
 74
     0
 42
0.0000000001
 43
0.0000000001
 40
0.0
 40
0.0
 40
0.0
 40
0.0
 40
0.0033683488177544
 40
0.0211860048029665
 40
0.039871059238836
 40
0.0612894302426912
 40
0.0866105021062134
 40
0.0982105106600286
 40
0.1121693180604741
 40
0.1310676092644748
 40
0.1516951211198743
 40
0.1647030398863915
 40
0.1762562676744416
 40
0.1888076605115835
 40
0.1990463330695049
 40
0.2108579689430664
 40
0.2108579689430664
 40
0.2197355467819086
 40
0.2321475820912742
 40
0.2439354880275118
 40
0.2552171297011121
 40
0.2744026237041106
 40
0.2795084983172673
 40
0.298333926963285
 40
0.3190419952183666
 40
0.3402614847950731
 40
0.3535560438920906
 40
0.3673975507881728
 40
0.3863251310100419
 40
0.3998611187917047
 40
0.4177430217245493
 40
0.4282146748217972
 40
0.443870143451603
 40
0.4573040116919194
 40
0.4573040116919194
 40
0.4702474172311167
 40
0.4877204912127348
 40
0.5056514381656734
 40
0.5216032247176031
 40
0.5352393000760765
 40
0.5463800437864751
 40
0.5657417239152318
 40
0.5785154765517435
 40
0.5948607364964446
 40
0.6069014858279175
 40
0.6231116508385963
 40
0.639185727291565
 40
0.6536479786670931
 40
0.6649193431927835
 40
0.6778283260141766
 40
0.6919646309305941
 40
0.7124026653071386
 40
0.7255159981674147
 40
0.7440365989441741
 40
0.7616481273992161
 40
0.777023921797345
 40
0.7950156343592365
 40
0.8148198161629018
 40
0.8372625005444296
 40
0.8546987137328843
 40
0.8780401726901995
 40
0.9029766320189283
 40
0.933823510088154
 40
0.9598805807569052
 40
0.9788657822053419
 40
0.9941732691615044
 40
1.0
 40
1.0
 40
1.0
 40
1.0
 10
659.2040962298024
 20
314.0398710684694
 30
0.0
 41
1.0
 10
659.2041152558504
 20
314.0810606065862
 30
0.0
 41
1.0
 10
659.2025761520281
 20
314.3401534300112
 30
0.0
 41
1.0
 10
659.1791927587294
 20
314.8305415277016
 30
0.0
 41
1.0
 10
659.1250833582335
 20
315.5947816811604
 30
0.0
 41
1.0
 10
659.0663508457826
 20
316.4453089286698
 30
0.0
 41
1.0
 10
659.0059174071283
 20
317.1974133831243
 30
0.0
 41
0.9999999999999996
 10
658.9475973870082
 20
317.8565631454321
 30
0.0
 41
1.0
 10
658.8939179445892
 20
318.4345787425586
 30
0.0
 41
1.0
 10
658.826027826678
 20
319.1325683565092
 30
0.0
 41
1.0
 10
658.7568591045618
 20
319.8203237563882
 30
0.0
 41
1.0
 10
658.6966104840946
 20
320.4118321686693
 30
0.0
 41
1.0
 10
658.6469199773865
 20
320.8980542242537
 30
0.0
 41
1.0
 10
658.6013974510722
 20
321.3440642786068
 30
0.0
 41
1.0
 10
658.5548231360485
 20
321.8025363660537
 30
0.0
 41
1.0
 10
658.5282466005407
 20
322.0668453864496
 30
0.0
 41
1.0
 10
658.4986464604354
 20
322.361329195437
 30
0.0
 41
1.0
 10
658.4732827012016
 20
322.6162074711211
 30
0.0
 41
1.0
 10
658.4305387960407
 20
323.049205172294
 30
0.0
 41
1.0
 10
658.3871704223978
 20
323.4960173370321
 30
0.0
 41
1.0
 10
658.3363808305397
 20
324.0268287121138
 30
0.0
 41
1.0
 10
658.2951608453575
 20
324.4662923608535
 30
0.0
 41
1.0
 10
658.2465374527821
 20
324.9920770638137
 30
0.0
 41
1.0
 10
658.1975807251393
 20
325.5289618807858
 30
0.0
 41
1.0
 10
658.1333973177589
 20
326.2419927397528
 30
0.0
 41
1.0
 10
658.0770695355745
 20
326.8727791019686
 30
0.0
 41
1.0
 10
658.0290494304936
 20
327.4122717445383
 30
0.0
 41
1.0
 10
657.9842301387595
 20
327.9164505881603
 30
0.0
 41
0.9999999999999998
 10
657.9403020563029
 20
328.4113306690708
 30
0.0
 41
1.0
 10
657.8936145813598
 20
328.9358884709073
 30
0.0
 41
1.0
 10
657.857397132785
 20
329.3615762906423
 30
0.0
 41
1.0
 10
657.8219647489162
 20
329.7948505557196
 30
0.0
 41
1.0
 10
657.7912724736417
 20
330.1850901601053
 30
0.0
 41
1.0
 10
657.7724514183353
 20
330.4367978777625
 30
0.0
 41
1.0
 10
657.7523509963555
 20
330.7066188802981
 30
0.0
 41
1.0
 10
657.7340004678826
 20
330.9625826645882
 30
0.0
 41
1.0
 10
657.7036099413027
 20
331.3988747971183
 30
0.0
 41
1.0
 10
657.6750136368603
 20
331.8290820891287
 30
0.0
 41
1.0
 10
657.650442395332
 20
332.2135775054701
 30
0.0
 41
1.0
 10
657.631061062365
 20
332.529005208309
 30
0.0
 41
1.0
 10
657.6114682996624
 20
332.8585890886651
 30
0.0
 41
1.0
 10
657.5939346579994
 20
333.166351298683
 30
0.0
 41
1.0
 10
657.5761298852756
 20
333.4923034444686
 30
0.0
 41
1.0
 10
657.5623322125217
 20
333.7542356256335
 30
0.0
 41
1.0
 10
657.5486369488692
 20
334.0220572522793
 30
0.0
 41
1.0
 10
657.5362360327352
 20
334.2725008417666
 30
0.0
 41
1.0
 10
657.5245930407892
 20
334.5177561659073
 30
0.0
 41
1.0
 10
657.5152399578935
 20
334.7215306096786
 30
0.0
 41
1.0
 10
657.5072970933381
 20
334.8981277624449
 30
0.0
 41
1.0
 10
657.5000274411389
 20
335.0625844647606
 30
0.0
 41
0.9999999999999998
 10
657.4918204478914
 20
335.2521029393311
 30
0.0
 41
1.0
 10
657.4846039724016
 20
335.4248211596138
 30
0.0
 41
1.0
 10
657.4778777232491
 20
335.5958447197902
 30
0.0
 41
1.0
 10
657.4726145191292
 20
335.7425676464521
 30
0.0
 41
0.9999999999999998
 10
657.4684638225724
 20
335.8792123840488
 30
0.0
 41
1.0
 10
657.4653332446977
 20
336.0004581099623
 30
0.0
 41
1.0
 10
657.4629704945647
 20
336.1131458128654
 30
0.0
 41
0.9999999999999998
 10
657.4616016576807
 20
336.2242461329343
 30
0.0
 41
1.0
 10
657.461894206491
 20
336.3171884800846
 30
0.0
 41
1.0
 10
657.4639910097215
 20
336.3997590062518
 30
0.0
 41
1.0
 10
657.4681693486931
 20
336.4696075457087
 30
0.0
 41
1.0
 10
657.4762407174046
 20
336.5323093362233
 30
0.0
 41
1.0
 10
657.4884960215077
 20
336.5727964227246
 30
0.0
 41
1.0
 10
657.5039232045007
 20
336.5877568803326
 30
0.0
 41
1.0
 10
657.5190356390893
 20
336.5850131477309
 30
0.0
 41
1.0
 10
657.5305660365564
 20
336.5753706270193
 30
0.0
 41
1.0
 10
657.5372659403626
 20
336.5675564158012
 30
0.0
 41
1.0
 10
657.539153213692
 20
336.5651884862388
 30
0.0
 41
1.0
  0
SPLINE
  5
42
330
2
100
AcDbEntity
  8
OUTLINE
  6
CONTINUOUS
100
AcDbSpline
210
0.0
220
0.0
230
1.0
 70
    12
 71
     3
 72
    72
 73
    68
 74
     0
 42
0.0000000001
 43
0.0000000001
 40
0.0
 40
0.0
 40
0.0
 40
0.0
 40
0.0372743941402536
 40
0.061914432933005
 40
0.0884946127947936
 40
0.1177757681836674
 40
0.141279923788891
 40
0.1626958110062152
 40
0.1813022489452447
 40
0.1988780321953746
 40
0.2144752096976104
 40
0.2347756053531388
 40
0.2496438038818622
 40
0.2677915951456918
 40
0.2841874966991238
 40
0.3047374452846062
 40
0.3188351401584529
 40
0.3318267176734634
 40
0.3430255143150807
 40
0.3576728982472061
 40
0.3709680879439
 40
0.3854295513819465
 40
0.4022040065773726
 40
0.4189051230795645
 40
0.4315423036911949
 40
0.4407454046540324
 40
0.4615501635356554
 40
0.4722855513294267
 40
0.4841079660477373
 40
0.499721982226679
 40
0.510330351843987
 40
0.5278087957443965
 40
0.5437692918979785
 40
0.5437692918979785
 40
0.5543766869041598
 40
0.5725899926079396
 40
0.5806826838510033
 40
0.5986010618684371
 40
0.6123459861983111
 40
0.6330046054940436
 40
0.6452001359280706
 40
0.6586415813366729
 40
0.679956285399789
 40
0.7007504759881222
 40
0.7196349244114455
 40
0.7252772285825008
 40
0.7440253029466552
 40
0.751313287095239
 40
0.7706328219227112
 40
0.7887612054281507
 40
0.7887612054281507
 40
0.7908328523774912
 40
0.8098594748732779
 40
0.8164080569427763
 40
0.8301814280990111
 40
0.8414464088880926
 40
0.8634675216239172
 40
0.8819338049261558
 40
0.8945916593848789
 40
0.9073875373706979
 40
0.9319791064871632
 40
0.9404284062826928
 40
0.9583341451632424
 40
0.9779230029048575
 40
0.9875526566690703
 40
0.9976758068573591
 40
1.0
 40
1.0
 40
1.0
 40
1.0
 10
652.7484685732336
 20
336.5739787536688
 30
0.0
 41
1.0
 10
652.7605777508401
 20
336.588344670696
 30
0.0
 41
0.9999999999999996
 10
652.7789530329946
 20
336.6004043673858
 30
0.0
 41
0.9999999999999996
 10
652.8007206482799
 20
336.589659119219
 30
0.0
 41
1.0
 10
652.8171479274371
 20
336.5590026939865
 30
0.0
 41
1.0
 10
652.8299404888605
 20
336.5057839129539
 30
0.0
 41
1.0
 10
652.8390353040172
 20
336.4344416176458
 30
0.0
 41
1.0
 10
652.8448153635393
 20
336.3565282871711
 30
0.0
 41
1.0
 10
652.8484967817096
 20
336.2712818551766
 30
0.0
 41
1.0
 10
652.8505946142256
 20
336.1819555063031
 30
0.0
 41
0.9999999999999998
 10
652.851688822357
 20
336.0768851188431
 30
0.0
 41
0.9999999999999998
 10
652.851740526494
 20
335.9631912141913
 30
0.0
 41
1.0
 10
652.85060591649
 20
335.828064740133
 30
0.0
 41
1.0
 10
652.8482831746218
 20
335.6881364155161
 30
0.0
 41
1.0
 10
652.844156064409
 20
335.513738766309
 30
0.0
 41
1.0
 10
652.8388711727777
 20
335.3328967797301
 30
0.0
 41
1.0
 10
652.8326592718967
 20
335.1461169131998
 30
0.0
 41
1.0
 10
652.8268365438217
 20
334.9842014060588
 30
0.0
 41
1.0
 10
652.8201289270972
 20
334.808893775849
 30
0.0
 41
1.0
 10
652.8124358383917
 20
334.6199501587245
 30
0.0
 41
1.0
 10
652.8028449785375
 20
334.4004326595964
 30
0.0
 41
1.0
 10
652.7912982429045
 20
334.1540855059753
 30
0.0
 41
1.0
 10
652.7770200756775
 20
333.8695362579091
 30
0.0
 41
1.0
 10
652.7612815610422
 20
333.5757646947551
 30
0.0
 41
1.0
 10
652.7465533912433
 20
333.31591811233
 30
0.0
 41
0.9999999999999998
 10
652.7289246861688
 20
333.0169704193621
 30
0.0
 41
1.0
 10
652.7102979113071
 20
332.7165970131396
 30
0.0
 41
1.0
 10
652.688429667555
 20
332.3812212277451
 30
0.0
 41
1.0
 10
652.6679003787902
 20
332.0764945169455
 30
0.0
 41
1.0
 10
652.6458183941581
 20
331.7607806925475
 30
0.0
 41
1.0
 10
652.618952935331
 20
331.3884518277258
 30
0.0
 41
1.0
 10
652.5890701078383
 20
330.9892974686688
 30
0.0
 41
1.0
 10
652.5671863608264
 20
330.7063615862924
 30
0.0
 41
1.0
 10
652.5451628029302
 20
330.4321841927611
 30
0.0
 41
1.0
 10
652.5248049306071
 20
330.1795129467091
 30
0.0
 41
1.0
 10
652.4938008760933
 20
329.8114251461153
 30
0.0
 41
1.0
 10
652.4555353383474
 20
329.3732945450272
 30
0.0
 41
1.0
 10
652.4189615911892
 20
328.968087550579
 30
0.0
 41
1.0
 10
652.3675509654545
 20
328.4215276655876
 30
0.0
 41
1.0
 10
652.3206730662039
 20
327.9217099015113
 30
0.0
 41
1.0
 10
652.2729905350112
 20
327.4134724282656
 30
0.0
 41
1.0
 10
652.2237783619008
 20
326.8888509966363
 30
0.0
 41
0.9999999999999998
 10
652.1641554142262
 20
326.2536461739498
 30
0.0
 41
1.0
 10
652.0967100532787
 20
325.5375463030271
 30
0.0
 41
1.0
 10
652.0450229462242
 20
324.9925829670953
 30
0.0
 41
1.0
 10
651.994505696593
 20
324.4651931713286
 30
0.0
 41
1.0
 10
651.9565820395314
 20
324.0733580806756
 30
0.0
 41
1.0
 10
651.9011670553252
 20
323.5079408395615
 30
0.0
 41
1.0
 10
651.8436240505552
 20
322.9289404113882
 30
0.0
 41
1.0
 10
651.7986641894512
 20
322.4841281055541
 30
0.0
 41
1.0
 10
651.7694674919302
 20
322.1975863396556
 30
0.0
 41
1.0
 10
651.7432506443826
 20
321.940307772702
 30
0.0
 41
1.0
 10
651.7050451118367
 20
321.5680648037996
 30
0.0
 41
1.0
 10
651.6525462526328
 20
321.0584926751498
 30
0.0
 41
1.0
 10
651.6100013809075
 20
320.6459996795673
 30
0.0
 41
1.0
 10
651.5468918787471
 20
320.0320217545458
 30
0.0
 41
1.0
 10
651.4781616263547
 20
319.3561631058796
 30
0.0
 41
1.0
 10
651.4099262977987
 20
318.6639542498077
 30
0.0
 41
1.0
 10
651.3558897627818
 20
318.0937817828715
 30
0.0
 41
1.0
 10
651.2970136562771
 20
317.4458011007431
 30
0.0
 41
1.0
 10
651.2479884349028
 20
316.8571477529059
 30
0.0
 41
1.0
 10
651.1983257668846
 20
316.1984915835259
 30
0.0
 41
1.0
 10
651.1568580874056
 20
315.603415476455
 30
0.0
 41
1.0
 10
651.1134149291797
 20
314.9823271418789
 30
0.0
 41
1.0
 10
651.0852276088492
 20
314.4901082470511
 30
0.0
 41
1.0
 10
651.0780733924205
 20
314.220511598613
 30
0.0
 41
1.0
 10
651.0775180012804
 20
314.0686711010618
 30
0.0
 41
1.0
 10
651.0775338718223
 20
314.0403178053403
 30
0.0
 41
1.0
  0
SPLINE
  5
43
330
2
100
AcDbEntity
  8
OUTLINE
  6
CONTINUOUS
100
AcDbSpline
210
0.0
220
0.0
230
1.0
 70
    12
 71
     3
 72
     8
 73
     4
 74
     0
 42
0.0000000001
 43
0.0000000001
 40
0.0
 40
0.0
 40
0.0
 40
0.0
 40
1.0
 40
1.0
 40
1.0
 40
1.0
 10
652.1227931332879
 20
332.774646845063
 30
0.0
 41
0.9933774756852901
 10
652.3139382090118
 20
333.8444293749513
 30
0.0
 41
0.9946070251379763
 10
652.4466055461869
 20
334.9218125288508
 30
0.0
 41
0.9968145332428798
 10
652.5207931855508
 20
336.0035850629138
 30
0.0
 41
1.0
  0
SPLINE
  5
44
330
2
100
AcDbEntity
  8
OUTLINE
  6
CONTINUOUS
100
AcDbSpline
210
0.0
220
0.0
230
1.0
 70
    12
 71
     3
 72
    26
 73
    22
 74
     0
 42
0.0000000001
 43
0.0000000001
 40
0.0
 40
0.0
 40
0.0
 40
0.0
 40
0.03799439345421
 40
0.0928636173094386
 40
0.1475109249084885
 40
0.2071501575352296
 40
0.2659323477727144
 40
0.3235829948796121
 40
0.37986007268844
 40
0.439501170701629
 40
0.4970473002174387
 40
0.4970473002174387
 40
0.5447500234742541
 40
0.5939214750369728
 40
0.6496328334779107
 40
0.7067950095584436
 40
0.76517963073478
 40
0.8245241763370502
 40
0.8900763418118414
 40
0.9560199283542447
 40
1.0
 40
1.0
 40
1.0
 40
1.0
 10
652.8297694287958
 20
336.6693189727596
 30
0.0
 41
1.0
 10
652.8737158411378
 20
336.7193834216251
 30
0.0
 41
1.0
 10
652.9851128459725
 20
336.8382491007481
 30
0.0
 41
0.9999999999999998
 10
653.1766057861642
 20
337.012457706715
 30
0.0
 41
1.0
 10
653.4139486103188
 20
337.1908027604894
 30
0.0
 41
1.0
 10
653.673577954999
 20
337.3487314707043
 30
0.0
 41
1.0
 10
653.9524488132847
 20
337.4818972287966
 30
0.0
 41
1.0
 10
654.238152541908
 20
337.5845550534203
 30
0.0
 41
1.0
 10
654.5319453089737
 20
337.6598070100423
 30
0.0
 41
1.0
 10
654.839231041969
 20
337.7037471468085
 30
0.0
 41
1.0
 10
655.0298674868204
 20
337.7172119042735
 30
0.0
 41
1.0
 10
655.2327676900606
 20
337.7130766889389
 30
0.0
 41
1.0
 10
655.3903421904482
 20
337.7089173988204
 30
0.0
 41
1.0
 10
655.6612814777611
 20
337.6747518418393
 30
0.0
 41
1.0
 10
655.9377320028986
 20
337.6149273150576
 30
0.0
 41
1.0
 10
656.2245527224878
 20
337.5231987582743
 30
0.0
 41
1.0
 10
656.5062203713542
 20
337.401253723224
 30
0.0
 41
0.9999999999999998
 10
656.7872093907761
 20
337.2443706839283
 30
0.0
 41
1.0
 10
657.0607325384457
 20
337.0506608273738
 30
0.0
 41
1.0
 10
657.2906148456834
 20
336.8453803593398
 30
0.0
 41
1.0
 10
657.4217156759535
 20
336.7039641724622
 30
0.0
 41
1.0
 10
657.4719595862716
 20
336.6454901142143
 30
0.0
 41
1.0
  0
SPLINE
  5
45
330
2
100
AcDbEntity
  8
OUTLINE
  6
CONTINUOUS
100
AcDbSpline
210
0.0
220
0.0
230
1.0
 70
    12
 71
     3
 72
     8
 73
     4
 74
     0
 42
0.0000000001
 43
0.0000000001
 40
0.0
 40
0.0
 40
0.0
 40
0.0
 40
1.0
 40
1.0
 40
1.0
 40
1.0
 10
660.7598219273128
 20
325.8968271562943
 30
0.0
 41
1.0
 10
660.2744423283739
 20
326.2416173079401
 30
0.0
 41
0.9716106373545503
 10
659.9092772748588
 20
326.7118598573661
 30
0.0
 41
0.9716106373545503
 10
659.6954271761567
 20
327.2675051457703
 30
0.0
 41
1.0
  0
SPLINE
  5
46
330
2
100
AcDbEntity
  8
OUTLINE
  6
CONTINUOUS
100
AcDbSpline
210
0.0
220
0.0
230
1.0
 70
    12
 71
     3
 72
     8
 73
     4
 74
     0
 42
0.0000000001
 43
0.0000000001
 40
0.0
 40
0.0
 40
0.0
 40
0.0
 40
1.0
 40
1.0
 40
1.0
 40
1.0
 10
658.1588182991805
 20
332.774646845063
 30
0.0
 41
0.9933774756852901
 10
657.9677910788707
 20
333.8437697730282
 30
0.0
 41
0.994608224748492
 10
657.835169534633
 20
334.9204842072206
 30
0.0
 41
0.9968157328533951
 10
657.7609554913411
 20
336.0015848010306
 30
0.0
 41
1.0
  0
SPLINE
  5
47
330
2
100
AcDbEntity
  8
OUTLINE
  6
CONTINUOUS
100
AcDbSpline
210
0.0
220
0.0
230
1.0
 70
    12
 71
     3
 72
    14
 73
    10
 74
     0
 42
0.0000000001
 43
0.0000000001
 40
0.0
 40
0.0
 40
0.0
 40
0.0
 40
0.3014732544046115
 40
0.3014732544046115
 40
0.3014732544046115
 40
0.6604030427744796
 40
0.6604030427744796
 40
0.6604030427744796
 40
0.9329457955257463
 40
0.9329457955257463
 40
0.9329457955257463
 40
0.9329457955257463
 10
649.5212898319952
 20
325.8965762496927
 30
0.0
 41
0.9999999999999998
 10
642.6588904719208
 20
322.4506681576195
 30
0.0
 41
0.7908131313978628
 10
640.4563109074675
 20
315.0943476902651
 30
0.0
 41
0.7908131313978628
 10
644.2958033044407
 20
308.4441517766288
 30
0.0
 41
1.0
 10
649.7183045046897
 20
299.0521041840829
 30
0.0
 41
0.6666666666666669
 10
660.5633069135118
 20
299.0521041792771
 30
0.0
 41
0.6666666666666669
 10
665.9858081220846
 20
308.4441517670183
 30
0.0
 41
1.0
 10
669.6609579666024
 20
314.8096980166385
 30
0.0
 41
0.7468931607403735
 10
667.9119752641065
 20
322.3058208724173
 30
0.0
 41
0.6859755377207422
 10
660.7598219227615
 20
325.8968271453587
 30
0.0
 41
0.8172471309411058
  0
SPLINE
  5
48
330
2
100
AcDbEntity
  8
OUTLINE
  6
CONTINUOUS
100
AcDbSpline
210
0.0
220
0.0
230
1.0
 70
    12
 71
     3
 72
    34
 73
    30
 74
     0
 42
0.0000000001
 43
0.0000000001
 40
0.0
 40
0.0
 40
0.0
 40
0.0
 40
0.0281869130640767
 40
0.0665747690726036
 40
0.0967658616569716
 40
0.1236790559346525
 40
0.1465421954619177
 40
0.163627453736021
 40
0.1907535114997436
 40
0.2315163518675178
 40
0.2724755474688834
 40
0.3127404388928348
 40
0.3344796586767991
 40
0.3627889189452261
 40
0.3930081510368702
 40
0.4369954002057724
 40
0.4669916482471817
 40
0.5082133573437401
 40
0.5549838503241618
 40
0.5874298477760304
 40
0.6390084545804005
 40
0.6797659522220997
 40
0.6797659522220997
 40
0.7083825559685324
 40
0.7683795136910323
 40
0.8358375668160762
 40
0.9149615089298352
 40
0.9808849505594084
 40
1.0
 40
1.0
 40
1.0
 40
1.0
 10
655.1444068274275
 20
307.4264067025213
 30
0.0
 41
1.0
 10
655.2434080301052
 20
307.4271387315683
 30
0.0
 41
1.0
 10
655.460918111195
 20
307.4296810419318
 30
0.0
 41
1.0
 10
655.8084070927967
 20
307.4633039582656
 30
0.0
 41
1.0
 10
656.1345923622767
 20
307.5158754178163
 30
0.0
 41
1.0
 10
656.4083389855247
 20
307.5778520695696
 30
0.0
 41
1.0
 10
656.6332953792684
 20
307.6417935627889
 30
0.0
 41
1.0
 10
656.8542703634799
 20
307.7152649505721
 30
0.0
 41
1.0
 10
657.1304020780239
 20
307.8224240496593
 30
0.0
 41
1.0
 10
657.4734548511343
 20
307.9866970339848
 30
0.0
 41
1.0
 10
657.8364015103532
 20
308.2043045348695
 30
0.0
 41
1.0
 10
658.1239415952032
 20
308.4158810615972
 30
0.0
 41
1.0
 10
658.3578428892088
 20
308.6154598316973
 30
0.0
 41
1.0
 10
658.5560646004417
 20
308.8054761853493
 30
0.0
 41
1.0
 10
658.789885080402
 20
309.0615455488789
 30
0.0
 41
1.0
 10
659.0056964276753
 20
309.340565202462
 30
0.0
 41
1.0
 10
659.2155878747478
 20
309.658426625819
 30
0.0
 41
1.0
 10
659.4078599825848
 20
309.9962531422023
 30
0.0
 41
1.0
 10
659.5778263676184
 20
310.3540237016161
 30
0.0
 41
1.0
 10
659.7348553574439
 20
310.7453451895306
 30
0.0
 41
1.0
 10
659.8692802331919
 20
311.1467045153232
 30
0.0
 41
1.0
 10
659.9342096565308
 20
311.4222054521134
 30
0.0
 41
1.0
 10
659.9865642794958
 20
311.6489096215553
 30
0.0
 41
1.0
 10
660.0379304005027
 20
311.9125088911054
 30
0.0
 41
1.0
 10
660.0826393835733
 20
312.3435312031713
 30
0.0
 41
1.0
 10
660.1212898222825
 20
312.861823466911
 30
0.0
 41
1.0
 10
660.1644483306941
 20
313.4152251390631
 30
0.0
 41
1.0
 10
660.1830701261206
 20
313.8729619535831
 30
0.0
 41
1.0
 10
660.1860908099967
 20
314.0914433164228
 30
0.0
 41
1.0
 10
660.1868049835293
 20
314.1473351884533
 30
0.0
 41
1.0
  0
SPLINE
  5
49
330
2
100
AcDbEntity
  8
OUTLINE
  6
CONTINUOUS
100
AcDbSpline
210
0.0
220
0.0
230
1.0
 70
    12
 71
     3
 72
    35
 73
    31
 74
     0
 42
0.0000000001
 43
0.0000000001
 40
0.0
 40
0.0
 40
0.0
 40
0.0
 40
0.0441091463658724
 40
0.0859916814900343
 40
0.1071430676390155
 40
0.1316237039086618
 40
0.163605738749231
 40
0.1933219292847771
 40
0.2125435152828029
 40
0.244604493347667
 40
0.2833473048515213
 40
0.3207875110314505
 40
0.3534224353788656
 40
0.3880422195678389
 40
0.4197977461757512
 40
0.4602737372379078
 40
0.5050087214490392
 40
0.5321746031538359
 40
0.5611806897049005
 40
0.610481435433755
 40
0.6489973655591254
 40
0.70133320585372
 40
0.7360569057825522
 40
0.7360569057825522
 40
0.7683523098548867
 40
0.8361380145662991
 40
0.8922249765481812
 40
0.9389478533438342
 40
0.9675397917733123
 40
1.0
 40
1.0
 40
1.0
 40
1.0
 10
655.1436417639932
 20
308.0237266779589
 30
0.0
 41
1.0
 10
655.0066752181451
 20
308.0252235101916
 30
0.0
 41
1.0
 10
654.7806055651442
 20
308.0304780597766
 30
0.0
 41
1.0
 10
654.4807398726495
 20
308.0730345210616
 30
0.0
 41
1.0
 10
654.2447019481917
 20
308.1206626745591
 30
0.0
 41
1.0
 10
654.0391981671946
 20
308.1734692424542
 30
0.0
 41
1.0
 10
653.8166269190899
 20
308.2457449196473
 30
0.0
 41
1.0
 10
653.6149468754215
 20
308.326856075276
 30
0.0
 41
1.0
 10
653.41944788603
 20
308.4179165730411
 30
0.0
 41
1.0
 10
653.2101177644395
 20
308.5301698604061
 30
0.0
 41
1.0
 10
652.9726645777842
 20
308.682203542167
 30
0.0
 41
1.0
 10
652.7505202940395
 20
308.8518308514271
 30
0.0
 41
1.0
 10
652.5519469769152
 20
309.02860712486
 30
0.0
 41
0.9999999999999998
 10
652.3779502001445
 20
309.207240455161
 30
0.0
 41
1.0
 10
652.2046159258036
 20
309.4113344139522
 30
0.0
 41
1.0
 10
652.0313919169039
 20
309.6474632407889
 30
0.0
 41
1.0
 10
651.8821118107547
 20
309.8880812995484
 30
0.0
 41
1.0
 10
651.7599275051277
 20
310.1132766749124
 30
0.0
 41
1.0
 10
651.6415653780161
 20
310.3555369814158
 30
0.0
 41
1.0
 10
651.5248901154791
 20
310.6325734722111
 30
0.0
 41
1.0
 10
651.4026068569258
 20
310.9768607786469
 30
0.0
 41
1.0
 10
651.3170148154237
 20
311.2822976615403
 30
0.0
 41
1.0
 10
651.2626582208852
 20
311.5053274258973
 30
0.0
 41
1.0
 10
651.2280050668482
 20
311.7051788679672
 30
0.0
 41
1.0
 10
651.1839938545469
 20
311.9511405170311
 30
0.0
 41
1.0
 10
651.154074969477
 20
312.4589342007012
 30
0.0
 41
1.0
 10
651.1147900825172
 20
312.993709582537
 30
0.0
 41
1.0
 10
651.0917989947341
 20
313.406411147447
 30
0.0
 41
1.0
 10
651.0798048665471
 20
313.7509509301413
 30
0.0
 41
1.0
 10
651.0783320268748
 20
313.9281383924226
 30
0.0
 41
1.0
 10
651.0775333799497
 20
314.0403183086618
 30
0.0
 41
1.0
  0
SPLINE
  5
4A
330
2
100
AcDbEntity
  8
OUTLINE
  6
CONTINUOUS
100
AcDbSpline
210
0.0
220
0.0
230
1.0
 70
    12
 71
     3
 72
    34
 73
    30
 74
     0
 42
0.0000000001
 43
0.0000000001
 40
0.0
 40
0.0
 40
0.0
 40
0.0
 40
0.015683270601575
 40
0.0697712904769594
 40
0.1346898876842221
 40
0.1900370059169178
 40
0.239262540287403
 40
0.2627415243019521
 40
0.2627415243019521
 40
0.3069461663354067
 40
0.3628871338209613
 40
0.3980773144199261
 40
0.4488035125319231
 40
0.4935116276040269
 40
0.5260448664861369
 40
0.573752422544649
 40
0.6065275047855068
 40
0.6372310756327872
 40
0.6608089320824129
 40
0.7044793047722271
 40
0.7489027037615337
 40
0.7931131403926317
 40
0.8225334370892401
 40
0.8410637142103343
 40
0.8658605480949709
 40
0.8950499779635743
 40
0.9277945407440579
 40
0.9694291241088448
 40
1.0
 40
1.0
 40
1.0
 40
1.0
 10
659.2040575286102
 20
314.0398659639223
 30
0.0
 41
1.0
 10
659.2038490482299
 20
313.9855277870434
 30
0.0
 41
1.0
 10
659.2028511822566
 20
313.7791923878588
 30
0.0
 41
1.0
 10
659.1888849333907
 20
313.3412407788162
 30
0.0
 41
1.0
 10
659.1507026225672
 20
312.795069176296
 30
0.0
 41
1.0
 10
659.1177958965118
 20
312.2567477543656
 30
0.0
 41
1.0
 10
659.0783020982772
 20
311.8570931651668
 30
0.0
 41
1.0
 10
659.0516141966875
 20
311.6791742630752
 30
0.0
 41
1.0
 10
659.0097928607838
 20
311.4814145957168
 30
0.0
 41
1.0
 10
658.954627907714
 20
311.228892264179
 30
0.0
 41
1.0
 10
658.8522734625102
 20
310.8974043577101
 30
0.0
 41
1.0
 10
658.7248458077628
 20
310.5528079276882
 30
0.0
 41
1.0
 10
658.5901789360141
 20
310.2456845109735
 30
0.0
 41
1.0
 10
658.4393877132007
 20
309.9574459068434
 30
0.0
 41
1.0
 10
658.2764123443864
 20
309.6881843268507
 30
0.0
 41
1.0
 10
658.1133177687339
 20
309.4572966420738
 30
0.0
 41
1.0
 10
657.9355878625442
 20
309.2434731916325
 30
0.0
 41
1.0
 10
657.7852798523711
 20
309.0847656790141
 30
0.0
 41
1.0
 10
657.6052383888784
 20
308.915155490898
 30
0.0
 41
1.0
 10
657.3843544023283
 20
308.7350064578803
 30
0.0
 41
1.0
 10
657.0991667585832
 20
308.5444842909781
 30
0.0
 41
1.0
 10
656.8249030370528
 20
308.3973036277642
 30
0.0
 41
1.0
 10
656.5994733036427
 20
308.298847905787
 30
0.0
 41
1.0
 10
656.416182354398
 20
308.2300934051553
 30
0.0
 41
1.0
 10
656.2292332252535
 20
308.1699581965949
 30
0.0
 41
1.0
 10
655.9991121098304
 20
308.1108799559278
 30
0.0
 41
1.0
 10
655.7212391803517
 20
308.05987860249
 30
0.0
 41
1.0
 10
655.4192663981291
 20
308.0265233214696
 30
0.0
 41
1.0
 10
655.236053501814
 20
308.0244362201483
 30
0.0
 41
1.0
 10
655.1436417639973
 20
308.0237266778475
 30
0.0
 41
1.0
  0
SPLINE
  5
4B
330
2
100
AcDbEntity
  8
OUTLINE
  6
CONTINUOUS
100
AcDbSpline
210
0.0
220
0.0
230
1.0
 70
    12
 71
     3
 72
    41
 73
    37
 74
     0
 42
0.0000000001
 43
0.0000000001
 40
0.0
 40
0.0
 40
0.0
 40
0.0
 40
0.0365133760351266
 40
0.0786002218428286
 40
0.1069420625283744
 40
0.1483537380270597
 40
0.1740827498264473
 40
0.2037780384273506
 40
0.2429534586708115
 40
0.2816932138390217
 40
0.308063958684574
 40
0.3316388152590038
 40
0.3751837423119825
 40
0.3993815671763306
 40
0.4216897840343818
 40
0.464558096568462
 40
0.4942215005445365
 40
0.51284997331254
 40
0.5403415584736587
 40
0.5600209977543079
 40
0.585923746112759
 40
0.6248979440384235
 40
0.6515519309934477
 40
0.6701100378203111
 40
0.6965256527172076
 40
0.7280165405296419
 40
0.7609208808129803
 40
0.7898980499997556
 40
0.8168602855934905
 40
0.8480262119830527
 40
0.8805048751829589
 40
0.9049784150965804
 40
0.9268117692175042
 40
0.9682701983413132
 40
0.9682701983413132
 40
1.0
 40
1.0
 40
1.0
 40
1.0
 10
660.2047510122181
 20
325.6696953784871
 30
0.0
 41
1.0
 10
660.2051197434007
 20
325.6083515898856
 30
0.0
 41
0.9999999999999996
 10
660.2057364357542
 20
325.47092543494
 30
0.0
 41
1.0
 10
660.2060245230408
 20
325.2679681683634
 30
0.0
 41
1.0
 10
660.2066252478699
 20
325.0404135696239
 30
0.0
 41
0.9999999999999996
 10
660.208190915376
 20
324.8318107395056
 30
0.0
 41
0.9999999999999996
 10
660.2112229114204
 20
324.6039119810972
 30
0.0
 41
1.0
 10
660.2152586071261
 20
324.3675794028447
 30
0.0
 41
1.0
 10
660.2211120916024
 20
324.0772378370958
 30
0.0
 41
1.0
 10
660.2248182689883
 20
323.7747580625554
 30
0.0
 41
0.9999999999999998
 10
660.2266607489632
 20
323.5043566190465
 30
0.0
 41
1.0
 10
660.2276595601431
 20
323.2083722180882
 30
0.0
 41
1.0
 10
660.2275311658477
 20
322.9040997423443
 30
0.0
 41
1.0
 10
660.2265925022962
 20
322.5892182942274
 30
0.0
 41
1.0
 10
660.2252341446947
 20
322.2664820729935
 30
0.0
 41
1.0
 10
660.2233339162896
 20
321.9085419978473
 30
0.0
 41
1.0
 10
660.2214190804658
 20
321.5483828154123
 30
0.0
 41
1.0
 10
660.2199385031215
 20
321.2402699285711
 30
0.0
 41
1.0
 10
660.2188434903571
 20
320.9655301893163
 30
0.0
 41
1.0
 10
660.2178232339065
 20
320.6524361880703
 30
0.0
 41
1.0
 10
660.2168238036697
 20
320.2815683489473
 30
0.0
 41
1.0
 10
660.2159523914645
 20
319.8676530260811
 30
0.0
 41
1.0
 10
660.2152560604248
 20
319.476637840303
 30
0.0
 41
1.0
 10
660.2146974049909
 20
319.1383902967881
 30
0.0
 41
1.0
 10
660.2141178438674
 20
318.7717599117673
 30
0.0
 41
1.0
 10
660.2134352294001
 20
318.3287243639073
 30
0.0
 41
1.0
 10
660.2127371325494
 20
317.865622066864
 30
0.0
 41
1.0
 10
660.2121109407412
 20
317.4191490872503
 30
0.0
 41
1.0
 10
660.2115870281461
 20
316.9770597160557
 30
0.0
 41
1.0
 10
660.2112252111671
 20
316.5132701372627
 30
0.0
 41
1.0
 10
660.2111682379877
 20
316.0590510783956
 30
0.0
 41
1.0
 10
660.2115751773919
 20
315.6510363661131
 30
0.0
 41
1.0
 10
660.2122117753331
 20
315.1961861945281
 30
0.0
 41
1.0
 10
660.2143163505608
 20
314.8608931395937
 30
0.0
 41
1.0
 10
660.205873463311
 20
314.4678808304259
 30
0.0
 41
0.9999999999999998
 10
660.1983171975744
 20
314.2911175378548
 30
0.0
 41
1.0
 10
660.1864481368722
 20
314.1198352675317
 30
0.0
 41
1.0
  0
LINE
  5
4C
330
2
100
AcDbEntity
  8
OUTLINE
  6
CONTINUOUS
100
AcDbLine
 10
691.2062684657477
 20
336.9463934605868
 30
0.0
 11
657.1749608669196
 21
336.9463934605868
 31
0.0
  0
LINE
  5
4D
330
2
100
AcDbEntity
  8
OUTLINE
  6
CONTINUOUS
100
AcDbLine
 10
691.2062684657477
 20
336.2446126374961
 30
0.0
 11
657.7137839391291
 21
336.2446126374961
 31
0.0
  0
LINE
  5
4E
330
2
100
AcDbEntity
  8
OUTLINE
  6
CONTINUOUS
100
AcDbLine
 10
691.2062684657477
 20
396.5545888326973
 30
0.0
 11
633.1008007080602
 21
396.5545888326973
 31
0.0
  0
LINE
  5
4F
330
2
100
AcDbEntity
  8
OUTLINE
  6
CONTINUOUS
100
AcDbLine
 10
691.2067860251745
 20
397.2557830458266
 30
0.0
 11
633.1002831482326
 21
397.2557830458266
 31
0.0
  0
ARC
  5
50
330
2
100
AcDbEntity
  8
OUTLINE
  6
CONTINUOUS
100
AcDbCircle
 10
628.7476077643534
 20
417.9629764017271
 30
0.0
 40
35.06364433813848
100
AcDbArc
 50
229.7160601409997
 51
308.1027574200994
  0
ARC
  5
51
330
2
100
AcDbEntity
  8
OUTLINE
  6
CONTINUOUS
100
AcDbCircle
 10
628.0917086599836
 20
396.1163880092371
 30
0.0
 40
5.009092048076511
100
AcDbArc
 50
227.0476892761003
 51
0.0
  0
ARC
  5
52
330
2
100
AcDbEntity
  8
OUTLINE
  6
CONTINUOUS
100
AcDbCircle
 10
395.7686862562665
 20
155.0571249648751
 30
0.0
 40
300.5455228845907
100
AcDbArc
 50
38.77014791310065
 51
48.58484197979992
  0
LINE
  5
53
330
2
100
AcDbEntity
  8
OUTLINE
  6
CONTINUOUS
100
AcDbLine
 10
652.5689201938227
 20
336.2446126374961
 30
0.0
 11
633.1008007080602
 21
336.2446126374961
 31
0.0
  0
LINE
  5
54
330
2
100
AcDbEntity
  8
OUTLINE
  6
CONTINUOUS
100
AcDbLine
 10
653.1062116555927
 20
336.9463934605868
 30
0.0
 11
633.1008005870407
 21
336.9463934605868
 31
0.0
  0
LINE
  5
55
330
2
100
AcDbEntity
  8
OUTLINE
  6
CONTINUOUS
100
AcDbLine
 10
633.1008007080602
 20
336.2446126374961
 30
0.0
 11
633.1008007080602
 21
290.6618749999998
 31
0.0
  0
LINE
  5
56
330
2
100
AcDbEntity
  8
OUTLINE
  6
CONTINUOUS
100
AcDbLine
 10
636.4068014597907
 20
336.2446126374961
 30
0.0
 11
636.4068014597907
 21
336.9463934605868
 31
0.0
  0
ARC
  5
57
330
2
100
AcDbEntity
  8
OUTLINE
  6
CONTINUOUS
100
AcDbCircle
 10
587.5840644698981
 20
319.1300644537946
 30
0.0
 40
48.87939092375802
100
AcDbArc
 50
21.37655202730083
 51
29.5789599192998
  0
LWPOLYLINE
  5
58
330
2
100
AcDbEntity
  8
OUTLINE
  6
CONTINUOUS
100
AcDbPolyline
 90
       25
 70
     0
 43
0.0
 10
650.5861840580108
 20
327.2675546378948
 10
650.6139729009897
 20
327.3400373559288
 10
650.6986346008036
 20
327.5644024321991
 10
650.7797349591944
 20
327.7845767521895
 10
650.8574197768064
 20
328.0006093741466
 10
650.9318291407127
 20
328.2125507111759
 10
651.003097629989
 20
328.4204523649394
 10
651.0713545180809
 20
328.6243669689733
 10
651.1367239671567
 20
328.8243480444238
 10
651.2296237287505
 20
329.1170631911221
 10
651.3166765559207
 20
329.4012358606932
 10
651.3973611007648
 20
329.6740211970133
 10
651.4730079023553
 20
329.9388206593013
 10
651.5439250687427
 20
330.1958183064446
 10
651.6104024540428
 20
330.4451984173293
 10
651.6773787897932
 20
330.7056047684417
 10
651.7398362829514
 20
330.9576089607201
 10
651.7980743918672
 20
331.2014386000938
 10
651.8523732646401
 20
331.4373191946849
 10
651.9029949324853
 20
331.6654737148086
 10
651.950184433774
 20
331.8861222150881
 10
651.9984821257493
 20
332.1208235483914
 10
652.043175927872
 20
332.3469593715598
 10
652.0845309285058
 20
332.5648092476316
 10
652.1227931337794
 20
332.774646883013
  0
LWPOLYLINE
  5
59
330
2
100
AcDbEntity
  8
OUTLINE
  6
CONTINUOUS
100
AcDbPolyline
 90
       29
 70
     0
 43
0.0
 10
649.5212898273047
 20
325.8965762426658
 10
649.5723017122362
 20
325.9335282125189
 10
649.6302360093006
 20
325.9776174805463
 10
649.686133418792
 20
326.0223167642186
 10
649.740012986881
 20
326.0675284695921
 10
649.7918986606346
 20
326.1131592544407
 10
649.8418188135534
 20
326.1591202057771
 10
649.8898057831342
 20
326.2053269736977
 10
649.9389811153222
 20
326.2548774968983
 10
649.9860381597875
 20
326.3045264399418
 10
650.031027913895
 20
326.3541886703033
 10
650.0740042382084
 20
326.403785167352
 10
650.115023337144
 20
326.4532429506195
 10
650.1541432680831
 20
326.5024949712053
 10
650.1942131993762
 20
326.5552306093371
 10
650.2322253972587
 20
326.607587505611
 10
650.2682561277622
 20
326.6595037468476
 10
650.3023819282096
 20
326.7109244105575
 10
650.3346791644141
 20
326.7618012499668
 10
650.365223634757
 20
326.8120923602139
 10
650.4064541658654
 20
326.8837256821013
 10
650.4443960942012
 20
326.9539716017023
 10
650.4792644552773
 20
327.0227647487631
 10
650.5112661843035
 20
327.0900602350061
 10
650.540599182493
 20
327.1558316056131
 10
650.5674516478444
 20
327.2200688900865
 10
650.5771199552762
 20
327.2442735670133
 10
650.5818304268957
 20
327.2562919068101
 10
650.5861666556237
 20
327.2674918495269
  0
LWPOLYLINE
  5
5A
330
2
100
AcDbEntity
  8
OUTLINE
  6
CONTINUOUS
100
AcDbPolyline
 90
        7
 70
     0
 43
0.0
 10
652.7416156076229
 20
336.5659421403697
 10
652.6804040511757
 20
336.4811819453768
 10
652.6295508875407
 20
336.3934171258627
 10
652.5876064289763
 20
336.3005047269306
 10
652.5552876188132
 20
336.2038364683042
 10
652.5330184802993
 20
336.1049202037018
 10
652.5208100009786
 20
336.0037244463715
  0
LWPOLYLINE
  5
5B
330
2
100
AcDbEntity
  8
OUTLINE
  6
CONTINUOUS
100
AcDbPolyline
 90
      107
 70
     0
 43
0.0
 10
657.5391533058946
 20
336.5651885605403
 10
657.5448015953558
 20
336.5581779531236
 10
657.5511305202443
 20
336.5501550598978
 10
657.5572775926509
 20
336.5421984377614
 10
657.5632476629793
 20
336.5343098286761
 10
657.5690454786467
 20
336.5264908283382
 10
657.574675681278
 20
336.5187428961968
 10
657.5801428099122
 20
336.5110673602623
 10
657.5854513010026
 20
336.5034654247208
 10
657.5906054892158
 20
336.4959381759438
 10
657.5956096090387
 20
336.4884865868976
 10
657.6004677951762
 20
336.4811115255569
 10
657.6062132778536
 20
336.4722025972813
 10
657.6117539603963
 20
336.463410332362
 10
657.6170968054425
 20
336.4547357346215
 10
657.6222485684541
 20
336.4461796215437
 10
657.6272157993192
 20
336.4377426330898
 10
657.6320048499684
 20
336.4294252453245
 10
657.6366218747716
 20
336.4212277804322
 10
657.6410728389569
 20
336.4131504159351
 10
657.6453635198104
 20
336.4051931955127
 10
657.6500059066486
 20
336.3963848265627
 10
657.6544602088927
 20
336.3877281168913
 10
657.658733847212
 20
336.3792226032567
 10
657.6628339729872
 20
336.3708676625289
 10
657.6667674759237
 20
336.3626625273141
 10
657.6705409924675
 20
336.3546062951745
 10
657.6741609134185
 20
336.3466979422518
 10
657.6776333903429
 20
336.3389363328846
 10
657.680002996236
 20
336.3335360583981
 10
657.6823038737792
 20
336.3282080703188
 10
657.6845379945519
 20
336.3229518809621
 10
657.6867072756336
 20
336.3177669830073
 10
657.6888135832112
 20
336.3126528506996
 10
657.6908587317789
 20
336.3076089410538
 10
657.6928444869412
 20
336.3026346950551
 10
657.6947725646125
 20
336.2977295380606
 10
657.6966446342225
 20
336.2928928834051
 10
657.6984623199202
 20
336.2881241312001
 10
657.7002271989681
 20
336.2834226699354
 10
657.701940806553
 20
336.2787878784836
 10
657.7036046337805
 20
336.2742191256994
 10
657.705220130884
 20
336.2697157728229
 10
657.7067887072209
 20
336.2652771722792
 10
657.7083117316763
 20
336.2609026712831
 10
657.709790535867
 20
336.2565916094358
 10
657.7112264129407
 20
336.2523433227323
 10
657.7126206199782
 20
336.2481571419582
 10
657.7139743771953
 20
336.2440323942915
 10
657.7152888715456
 20
336.2399684033048
 10
657.7165652547205
 20
336.2359644905666
 10
657.717804646752
 20
336.2320199760428
 10
657.7190081344132
 20
336.2281341772948
 10
657.7201767744222
 20
336.2243064122838
 10
657.721834204839
 20
336.2187813340645
 10
657.7234216301892
 20
336.2133781118273
 10
657.7249420639421
 20
336.2080945772361
 10
657.726398391736
 20
336.2029285683669
 10
657.7277933769862
 20
336.1978779313101
 10
657.729129665295
 20
336.1929405245788
 10
657.7304097892597
 20
336.1881142187076
 10
657.7316361732802
 20
336.1833968994587
 10
657.7328111379692
 20
336.1787864690248
 10
657.7339369041576
 20
336.1742808492339
 10
657.7350155973032
 20
336.1698779799461
 10
657.7360492510977
 20
336.1655758234633
 10
657.7370398114726
 20
336.161372363325
 10
657.7379891402078
 20
336.1572656075155
 10
657.7388990185361
 20
336.1532535868606
 10
657.7397711503506
 20
336.1493343582336
 10
657.7406071654087
 20
336.1455060033521
 10
657.7417327212152
 20
336.1402343767753
 10
657.74279311194
 20
336.1351360519599
 10
657.7437922823431
 20
336.1302058539131
 10
657.7447339347449
 20
336.1254387202458
 10
657.7456215446537
 20
336.1208297023761
 10
657.7464583747917
 20
336.1163739667301
 10
657.7472474859144
 20
336.1120667947436
 10
657.7479917512371
 20
336.1079035836616
 10
657.7486938668535
 20
336.1038798465401
 10
657.749356363357
 20
336.0999912102414
 10
657.7499816146562
 20
336.0962334162355
 10
657.7505718487955
 20
336.0926023197998
 10
657.7513461314029
 20
336.0877057988806
 10
657.7520607396948
 20
336.0830407308736
 10
657.752720592199
 20
336.0785967132973
 10
657.7533301854771
 20
336.0743637568198
 10
657.7538936321944
 20
336.0703322764434
 10
657.7544146947801
 20
336.0664930806847
 10
657.7548968138785
 20
336.0628373595524
 10
657.7553431388069
 20
336.0593566733276
 10
657.7557565495927
 20
336.0560429413428
 10
657.7563206575097
 20
336.0513685552223
 10
657.7568245665597
 20
336.0470277898601
 10
657.7572752658278
 20
336.0429975481321
 10
657.7576788832377
 20
336.0392562504691
 10
657.7580407953477
 20
336.0357837470966
 10
657.7583657215241
 20
336.0325612362887
 10
657.7587923394823
 20
336.0281618962067
 10
657.7591570001811
 20
336.0242308268875
 10
657.7594695494918
 20
336.0207193728153
 10
657.7597381422171
 20
336.0175838010108
 10
657.7600394234755
 20
336.0139203967329
 10
657.7602874789231
 20
336.0107734434695
 10
657.7604925647762
 20
336.0080713737185
 10
657.7607369667926
 20
336.0047182939132
 10
657.7609236296058
 20
336.0020489054821
  0
LINE
  5
5C
330
2
100
AcDbEntity
  8
OUTLINE
  6
CONTINUOUS
100
AcDbLine
 10
657.4719596472797
 20
336.6454901667086
 30
0.0
 11
657.5391532169332
 21
336.5651884888102
 31
0.0
  0
LINE
  5
5D
330
2
100
AcDbEntity
  8
OUTLINE
  6
CONTINUOUS
100
AcDbLine
 10
652.8297679861992
 20
336.6693202388873
 30
0.0
 11
652.7416156076229
 21
336.5659421403697
 31
0.0
  0
LWPOLYLINE
  5
5E
330
2
100
AcDbEntity
  8
OUTLINE
  6
CONTINUOUS
100
AcDbPolyline
 90
       25
 70
     0
 43
0.0
 10
659.6954240222863
 20
327.2675633485053
 10
659.6676385317922
 20
327.3400373559288
 10
659.582976831578
 20
327.5644024321991
 10
659.501876473588
 20
327.7845767521895
 10
659.4241916555752
 20
328.0006093741466
 10
659.3497822916688
 20
328.2125507111759
 10
659.2785138023924
 20
328.4204523649394
 10
659.2102569147008
 20
328.6243669689733
 10
659.1448874656255
 20
328.8243480444238
 10
659.0519877036309
 20
329.1170631911221
 10
658.9649348764607
 20
329.4012358606932
 10
658.8842503316167
 20
329.6740211970133
 10
658.8086035300261
 20
329.9388206593013
 10
658.7376863636388
 20
330.1958183064446
 10
658.6712089783386
 20
330.4451984173293
 10
658.604232642989
 20
330.7056047684417
 10
658.5417751494301
 20
330.9576089607201
 10
658.4835370405144
 20
331.2014386000938
 10
658.4292381681421
 20
331.4373191946849
 10
658.3786165002971
 20
331.6654737148086
 10
658.3314269986076
 20
331.8861222150881
 10
658.2831293070324
 20
332.1208235483914
 10
658.2384355045096
 20
332.3469593715598
 10
658.1970805038753
 20
332.5648092476316
 10
658.1588182990027
 20
332.774646883013
  0
LINE
  5
5F
330
2
100
AcDbEntity
  8
OUTLINE
  6
CONTINUOUS
100
AcDbLine
 10
635.5552558116179
 20
397.2557830458266
 30
0.0
 11
635.5552558116179
 21
396.5545888326973
 31
0.0
  0
LINE
  5
60
330
2
100
AcDbEntity
  8
OUTLINE
  6
CONTINUOUS
100
AcDbLine
 10
633.1008007080602
 20
396.5545888326973
 30
0.0
 11
633.1008007080602
 21
396.1163880092371
 31
0.0
  0
LINE
  5
61
330
2
100
AcDbEntity
  8
OUTLINE
  6
CONTINUOUS
100
AcDbLine
 10
691.2062684657477
 20
336.9463934605868
 30
0.0
 11
691.2062684657477
 21
396.5545888326973
 31
0.0
  0
LINE
  5
62
330
2
100
AcDbEntity
  8
OUTLINE
  6
CONTINUOUS
100
AcDbLine
 10
691.2062684657477
 20
290.6618749999998
 30
0.0
 11
691.2062684657477
 21
336.2446126374961
 31
0.0
  0
LINE
  5
63
330
2
100
AcDbEntity
  8
OUTLINE
  6
CONTINUOUS
100
AcDbLine
 10
687.9002677140173
 20
336.2446126374961
 30
0.0
 11
687.9002677140173
 21
336.9463934605868
 31
0.0
  0
LINE
  5
64
330
2
100
AcDbEntity
  8
OUTLINE
  6
CONTINUOUS
100
AcDbLine
 10
688.7518133621902
 20
397.2557830458266
 30
0.0
 11
688.7518133621902
 21
396.5545888326973
 31
0.0
  0
SPLINE
  5
65
330
2
100
AcDbEntity
  8
OUTLINE
  6
CONTINUOUS
100
AcDbSpline
210
0.0
220
0.0
230
1.0
 70
    12
 71
     3
 72
    24
 73
    20
 74
     0
 42
0.0000000001
 43
0.0000000001
 40
0.0
 40
0.0
 40
0.0
 40
0.0
 40
0.017703418436322
 40
0.0526712416127086
 40
0.0876377777143714
 40
0.1244706600505352
 40
0.1611690751359479
 40
0.1998902165869205
 40
0.2383968169918953
 40
0.2824551248016803
 40
0.3262357423516642
 40
0.3802354212665471
 40
0.4338694555329539
 40
0.5099458996180842
 40
0.5853859738339561
 40
0.6605947420557713
 40
0.773848647115984
 40
0.8868493010519379
 40
1.0
 40
1.0
 40
1.0
 40
1.0
 10
570.2777604594916
 20
495.6362065082827
 30
0.0
 41
1.0
 10
570.3539779916102
 20
495.6005115188585
 30
0.0
 41
1.0
 10
570.5857764444145
 20
495.4923464312058
 30
0.0
 41
0.9999999999999996
 10
570.9957200462903
 20
495.3031800467588
 30
0.0
 41
1.0
 10
571.5316221357534
 20
495.0601354927471
 30
0.0
 41
1.0
 10
572.1109320826212
 20
494.8027810732352
 30
0.0
 41
1.0
 10
572.7429910742826
 20
494.5288246354397
 30
0.0
 41
1.0
 10
573.4143305940706
 20
494.2460747921713
 30
0.0
 41
1.0
 10
574.1570255317663
 20
493.9434091898163
 30
0.0
 41
1.0
 10
574.9574626879577
 20
493.6295925596996
 30
0.0
 41
1.0
 10
575.8827781048895
 20
493.2828421359968
 30
0.0
 41
1.0
 10
576.8974139107645
 20
492.9228196191432
 30
0.0
 41
1.0
 10
578.1575850216922
 20
492.5040832548919
 30
0.0
 41
1.0
 10
579.5977771251028
 20
492.0653873775316
 30
0.0
 41
1.0
 10
581.2197834546025
 20
491.622499385356
 30
0.0
 41
1.0
 10
583.1424382819152
 20
491.1594256218018
 30
0.0
 41
1.0
 10
585.3621950337042
 20
490.6971517077587
 30
0.0
 41
1.0
 10
587.9634358296841
 20
490.2197826946355
 30
0.0
 41
1.0
 10
589.5548647642057
 20
489.9512054902581
 30
0.0
 41
1.0
 10
590.4999622752227
 20
489.7934295062633
 30
0.0
 41
1.0
  0
SPLINE
  5
66
330
2
100
AcDbEntity
  8
OUTLINE
  6
CONTINUOUS
100
AcDbSpline
210
0.0
220
0.0
230
1.0
 70
    12
 71
     3
 72
    11
 73
     7
 74
     0
 42
0.0000000001
 43
0.0000000001
 40
0.0
 40
0.0
 40
0.0
 40
0.0
 40
0.2102860363261786
 40
0.2102860363261786
 40
0.2102860363261786
 40
0.9115859936893407
 40
0.9115859936893407
 40
0.9115859936893407
 40
0.9115859936893407
 10
567.104762471371
 20
493.2374593901196
 30
0.0
 41
1.0
 10
568.1846476372173
 20
492.4024376536373
 30
0.0
 41
0.9380222309660624
 10
569.2012482315004
 20
491.6891594645972
 30
0.0
 41
0.8649720567227008
 10
570.1800490560749
 20
491.101450203867
 30
0.0
 41
0.7808494772699162
 10
574.106107053821
 20
488.744095586666
 30
0.0
 41
0.7191724972644316
 10
578.5025171680195
 20
487.7046336961547
 30
0.0
 41
0.6785277868693136
 10
583.0353253131337
 20
488.3264816862386
 30
0.0
 41
0.6589153460845625
  0
SPLINE
  5
67
330
2
100
AcDbEntity
  8
OUTLINE
  6
CONTINUOUS
100
AcDbSpline
210
0.0
220
0.0
230
1.0
 70
    12
 71
     3
 72
    20
 73
    16
 74
     0
 42
0.0000000001
 43
0.0000000001
 40
0.0
 40
0.0
 40
0.0
 40
0.0
 40
0.1282509334017652
 40
0.1282509334017652
 40
0.1282509334017652
 40
0.219237557985183
 40
0.3094607729733309
 40
0.3992768549933847
 40
0.4888485791654965
 40
0.5783345795856736
 40
0.6678149197147789
 40
0.7573045598879338
 40
0.8468365002156769
 40
0.9364238138157221
 40
1.0
 40
1.0
 40
1.0
 40
1.0
 10
568.1127915454688
 20
496.8142872719148
 30
0.0
 41
1.0
 10
574.1404726741444
 20
497.4728058488072
 30
0.0
 41
0.9849480319208955
 10
575.972405974984
 20
497.7206068340087
 30
0.0
 41
0.7718212170797153
 10
580.8626093242972
 20
498.1841948374976
 30
0.0
 41
0.7798374578019902
 10
584.175282050121
 20
498.4982339940843
 30
0.0
 41
0.8083177563026795
 10
589.3611285016882
 20
498.9226183202639
 30
0.0
 41
1.088700685900287
 10
599.3906943418127
 20
499.5492355770647
 30
0.0
 41
0.9748304784241064
 10
608.1761792575308
 20
499.8498576161038
 30
0.0
 41
1.012661824866927
 10
616.9468658351668
 20
500.0013563796067
 30
0.0
 41
0.9744788560886339
 10
626.9750021825184
 20
499.8942197906048
 30
0.0
 41
1.089369238265482
 10
636.4313159626747
 20
499.6012856422281
 30
0.0
 41
0.6680155372064384
 10
644.0905502792975
 20
499.1566219984742
 30
0.0
 41
0.7955366834270539
 10
653.8275237120492
 20
498.4353601805858
 30
0.0
 41
0.7753526262458365
 10
662.0095686055122
 20
497.5860561695156
 30
0.0
 41
0.8017098509158595
 10
666.8571053978991
 20
497.0346816411586
 30
0.0
 41
0.8127915842085069
 10
669.0205240527773
 20
496.7828333778597
 30
0.0
 41
0.817857965453266
  0
ARC
  5
68
330
2
100
AcDbEntity
  8
OUTLINE
  6
CONTINUOUS
100
AcDbCircle
 10
455.2037793636978
 20
354.4782156176339
 30
0.0
 40
120.2182091650565
100
AcDbArc
 50
56.42871906489951
 51
90.0
  0
ARC
  5
69
330
2
100
AcDbEntity
  8
OUTLINE
  6
CONTINUOUS
100
AcDbCircle
 10
460.4182540228008
 20
362.2454981016043
 30
0.0
 40
126.8198023042017
100
AcDbArc
 50
54.94854038309966
 51
81.69897457009943
  0
ARC
  5
6A
330
2
100
AcDbEntity
  8
OUTLINE
  6
CONTINUOUS
100
AcDbCircle
 10
448.7788975484678
 20
364.7114586363739
 30
0.0
 40
100.1818409651368
100
AcDbArc
 50
63.26297153410024
 51
72.09899025099945
  0
LINE
  5
6B
330
2
100
AcDbEntity
  8
OUTLINE
  6
CONTINUOUS
100
AcDbLine
 10
426.8655412204966
 20
474.6964247826906
 30
0.0
 11
455.2037798477766
 21
474.6964247826906
 31
0.0
  0
LINE
  5
6C
330
2
100
AcDbEntity
  8
OUTLINE
  6
CONTINUOUS
100
AcDbLine
 10
459.7159139942913
 20
467.6836959153836
 30
0.0
 11
416.4849407386991
 21
467.6836959153836
 31
0.0
  0
ARC
  5
6D
330
2
100
AcDbEntity
  8
OUTLINE
  6
CONTINUOUS
100
AcDbCircle
 10
448.9374334972958
 20
289.0934313393898
 30
0.0
 40
200.864591127868
100
AcDbArc
 50
81.47098032199995
 51
102.5624217108999
  0
LINE
  5
6E
330
2
100
AcDbEntity
  8
OUTLINE
  6
CONTINUOUS
100
AcDbLine
 10
440.8739317715125
 20
458.6673302288458
 30
0.0
 11
435.8648397234361
 21
458.6673302288458
 31
0.0
  0
LINE
  5
6F
330
2
100
AcDbEntity
  8
OUTLINE
  6
CONTINUOUS
100
AcDbLine
 10
446.6343876268005
 20
455.6618749999998
 30
0.0
 11
435.8648397234361
 21
455.6618749999998
 31
0.0
  0
ARC
  5
70
330
2
100
AcDbEntity
  8
OUTLINE
  6
CONTINUOUS
100
AcDbCircle
 10
435.8648397234361
 20
473.3750925771077
 30
0.0
 40
17.71321757670686
100
AcDbArc
 50
270.0
 51
286.4266945127003
  0
ARC
  5
71
330
2
100
AcDbEntity
  8
OUTLINE
  6
CONTINUOUS
100
AcDbCircle
 10
426.8655412204966
 20
502.747340251919
 30
0.0
 40
28.05091551130484
100
AcDbArc
 50
222.7997665036989
 51
270.0
  0
ARC
  5
72
330
2
100
AcDbEntity
  8
OUTLINE
  6
CONTINUOUS
100
AcDbCircle
 10
431.101596035331
 20
492.4471007404421
 30
0.0
 40
29.05273387884377
100
AcDbArc
 50
200.0049253052999
 51
237.2908309569992
  0
ARC
  5
73
330
2
100
AcDbEntity
  8
OUTLINE
  6
CONTINUOUS
100
AcDbCircle
 10
416.4849407386991
 20
469.6873327346142
 30
0.0
 40
2.003636819230603
100
AcDbArc
 50
237.2908309569022
 51
270.0
  0
LINE
  5
74
330
2
100
AcDbEntity
  8
OUTLINE
  6
CONTINUOUS
100
AcDbLine
 10
425.0952918200716
 20
455.6618749999998
 30
0.0
 11
435.8648397234361
 21
455.6618749999998
 31
0.0
  0
LINE
  5
75
330
2
100
AcDbEntity
  8
OUTLINE
  6
CONTINUOUS
100
AcDbLine
 10
423.8430188080525
 20
456.3848873462193
 30
0.0
 11
430.8557476753596
 21
456.3848873462193
 31
0.0
  0
LINE
  5
76
330
2
100
AcDbEntity
  8
OUTLINE
  6
CONTINUOUS
100
AcDbLine
 10
423.8430188080525
 20
456.3848873462193
 30
0.0
 11
425.0952918200716
 21
455.6618749999998
 31
0.0
  0
LINE
  5
77
330
2
100
AcDbEntity
  8
OUTLINE
  6
CONTINUOUS
100
AcDbLine
 10
423.8430188080525
 20
467.6836959153836
 30
0.0
 11
423.8430188080525
 21
456.3848873462193
 31
0.0
  0
LINE
  5
78
330
2
100
AcDbEntity
  8
OUTLINE
  6
CONTINUOUS
100
AcDbLine
 10
430.8557476753596
 20
458.6673302288458
 30
0.0
 11
435.8648397234361
 21
458.6673302288458
 31
0.0
  0
LINE
  5
79
330
2
100
AcDbEntity
  8
OUTLINE
  6
CONTINUOUS
100
AcDbLine
 10
430.8557476753596
 20
458.6673302288458
 30
0.0
 11
430.8557476753596
 21
456.3848873462193
 31
0.0
  0
ARC
  5
7A
330
2
100
AcDbEntity
  8
OUTLINE
  6
CONTINUOUS
100
AcDbCircle
 10
435.8648397234361
 20
473.3750925771077
 30
0.0
 40
17.71321757670686
100
AcDbArc
 50
253.5733054872996
 51
270.0
  0
ARC
  5
7B
330
2
100
AcDbEntity
  8
OUTLINE
  6
CONTINUOUS
100
AcDbCircle
 10
405.6845544939836
 20
483.1935797331466
 30
0.0
 40
2.003636819230603
100
AcDbArc
 50
102.5624217108999
 51
200.0049253052999
  0
ARC
  5
7C
330
2
100
AcDbEntity
  8
OUTLINE
  6
CONTINUOUS
100
AcDbCircle
 10
463.5834716494133
 20
471.9813979650689
 30
0.0
 40
15.76140350100463
100
AcDbArc
 50
251.0072669106989
 51
272.9927330892999
  0
LINE
  5
7D
330
2
100
AcDbEntity
  8
OUTLINE
  6
CONTINUOUS
100
AcDbLine
 10
464.7843931175828
 20
458.9313111806482
 30
0.0
 11
458.8319804273155
 21
459.7678682284779
 31
0.0
  0
LINE
  5
7E
330
2
100
AcDbEntity
  8
OUTLINE
  6
CONTINUOUS
100
AcDbLine
 10
469.8224928930466
 20
455.1882608747368
 30
0.0
 11
452.9573236040221
 21
457.5585058441218
 31
0.0
  0
LINE
  5
7F
330
2
100
AcDbEntity
  8
OUTLINE
  6
CONTINUOUS
100
AcDbLine
 10
461.2280778974068
 20
466.9945631222462
 30
0.0
 11
463.6473494962683
 21
464.2115095061698
 31
0.0
  0
LINE
  5
80
330
2
100
AcDbEntity
  8
OUTLINE
  6
CONTINUOUS
100
AcDbLine
 10
447.8866606388196
 20
467.6836959153836
 30
0.0
 11
447.8866606388196
 21
456.3848873462193
 31
0.0
  0
LINE
  5
81
330
2
100
AcDbEntity
  8
OUTLINE
  6
CONTINUOUS
100
AcDbLine
 10
447.8866606388196
 20
456.3848873462193
 30
0.0
 11
446.6343876268005
 21
455.6618749999998
 31
0.0
  0
LINE
  5
82
330
2
100
AcDbEntity
  8
OUTLINE
  6
CONTINUOUS
100
AcDbLine
 10
447.8866606388196
 20
456.3848873462193
 30
0.0
 11
440.8739317715125
 21
456.3848873462193
 31
0.0
  0
LINE
  5
83
330
2
100
AcDbEntity
  8
OUTLINE
  6
CONTINUOUS
100
AcDbLine
 10
440.8739317715125
 20
458.6673302288458
 30
0.0
 11
440.8739317715125
 21
456.3848873462193
 31
0.0
  0
LINE
  5
84
330
2
100
AcDbEntity
  8
OUTLINE
  6
CONTINUOUS
100
AcDbLine
 10
458.4539507730863
 20
457.0780474726056
 30
0.0
 11
452.501538082819
 21
457.9146045204354
 31
0.0
  0
LINE
  5
85
330
2
100
AcDbEntity
  8
OUTLINE
  6
CONTINUOUS
100
AcDbLine
 10
452.9573236040221
 20
457.5585058441218
 30
0.0
 11
452.501538082819
 21
457.9146045204354
 31
0.0
  0
LINE
  5
86
330
2
100
AcDbEntity
  8
OUTLINE
  6
CONTINUOUS
100
AcDbLine
 10
458.8319804273155
 20
459.7678682284779
 30
0.0
 11
458.4539507730863
 21
457.0780474726056
 31
0.0
  0
LINE
  5
87
330
2
100
AcDbEntity
  8
OUTLINE
  6
CONTINUOUS
100
AcDbLine
 10
454.6332422314121
 20
467.6836959153836
 30
0.0
 11
454.585659928746
 21
467.3451302393766
 31
0.0
  0
LINE
  5
88
330
2
100
AcDbEntity
  8
OUTLINE
  6
CONTINUOUS
100
AcDbLine
 10
460.9476961002825
 20
467.2603354475868
 30
0.0
 11
457.9353298467736
 21
467.6836959153836
 31
0.0
  0
LINE
  5
89
330
2
100
AcDbEntity
  8
OUTLINE
  6
CONTINUOUS
100
AcDbLine
 10
461.8053683817628
 20
466.3304663870828
 30
0.0
 11
453.8416083424126
 21
467.4496998706562
 31
0.0
  0
LINE
  5
8A
330
2
100
AcDbEntity
  8
OUTLINE
  6
CONTINUOUS
100
AcDbLine
 10
453.8416083424126
 20
467.4496998706562
 30
0.0
 11
452.501538082819
 21
457.9146045204354
 31
0.0
  0
ARC
  5
8B
330
2
100
AcDbEntity
  8
OUTLINE
  6
CONTINUOUS
100
AcDbCircle
 10
450.6133255316163
 20
370.3906147818264
 30
0.0
 40
94.21376417722463
100
AcDbArc
 50
72.09899025110039
 51
80.57121077139996
  0
LINE
  5
8C
330
2
100
AcDbEntity
  8
OUTLINE
  6
CONTINUOUS
100
AcDbLine
 10
470.3587761536213
 20
455.404933376546
 30
0.0
 11
464.4063634633537
 21
456.2414904247761
 31
0.0
  0
LINE
  5
8D
330
2
100
AcDbEntity
  8
OUTLINE
  6
CONTINUOUS
100
AcDbLine
 10
469.8224928930466
 20
455.1882608747368
 30
0.0
 11
470.3587761536213
 21
455.404933376546
 31
0.0
  0
LINE
  5
8E
330
2
100
AcDbEntity
  8
OUTLINE
  6
CONTINUOUS
100
AcDbLine
 10
464.7843931175828
 20
458.9313111806482
 30
0.0
 11
464.4063634633537
 21
456.2414904247761
 31
0.0
  0
LINE
  5
8F
330
2
100
AcDbEntity
  8
OUTLINE
  6
CONTINUOUS
100
AcDbLine
 10
471.3276724403949
 20
462.298988679598
 30
0.0
 11
470.3587761536213
 21
455.404933376546
 31
0.0
  0
ARC
  5
90
330
2
100
AcDbEntity
  8
OUTLINE
  6
CONTINUOUS
100
AcDbCircle
 10
465.1595139744276
 20
465.5260133531381
 30
0.0
 40
2.003637135805221
100
AcDbArc
 50
220.9999853494009
 51
260.2059882099978
  0
ARC
  5
91
330
2
100
AcDbEntity
  8
OUTLINE
  6
CONTINUOUS
100
AcDbCircle
 10
447.7770791396538
 20
364.8298222965188
 30
0.0
 40
100.1818409619309
100
AcDbArc
 50
79.49196642719916
 51
80.20597668900045
  0
ARC
  5
92
330
2
100
AcDbEntity
  8
OUTLINE
  6
CONTINUOUS
100
AcDbCircle
 10
352.9164570964926
 20
188.8889361435548
 30
0.0
 40
300.5455228845907
100
AcDbArc
 50
54.83301300000067
 51
59.53658171469921
  0
ARC
  5
93
330
2
100
AcDbEntity
  8
OUTLINE
  6
CONTINUOUS
100
AcDbCircle
 10
403.7074616866278
 20
275.2409778074615
 30
0.0
 40
200.3636819827688
100
AcDbArc
 50
59.53658170850046
 51
63.26297153410024
  0
ARC
  5
94
330
2
100
AcDbEntity
  8
OUTLINE
  6
CONTINUOUS
100
AcDbCircle
 10
568.330396346334
 20
494.8225036756972
 30
0.0
 40
2.003635132569129
100
AcDbArc
 50
96.23490638549887
 51
232.2870482050984
  0
LINE
  5
95
330
2
100
AcDbEntity
  8
OUTLINE
  6
CONTINUOUS
100
AcDbLine
 10
567.6259636858695
 20
492.8401416585516
 30
0.0
 11
567.5783516512367
 21
492.8760148819621
 31
0.0
  0
SPLINE
  5
96
330
2
100
AcDbEntity
  8
OUTLINE
  6
CONTINUOUS
100
AcDbSpline
210
0.0
220
0.0
230
1.0
 70
    12
 71
     3
 72
    18
 73
    14
 74
     0
 42
0.0000000001
 43
0.0000000001
 40
0.0
 40
0.0
 40
0.0
 40
0.0
 40
0.1081173049828384
 40
0.1942932740911132
 40
0.2815485665655392
 40
0.3527317335910091
 40
0.4736676849274643
 40
0.5501044461167181
 40
0.6276739034222155
 40
0.7144870946799176
 40
0.808470877217417
 40
0.8872646979218478
 40
1.0
 40
1.0
 40
1.0
 40
1.0
 10
590.4893804031626
 20
487.5134379912971
 30
0.0
 41
1.0
 10
591.8149756765894
 20
487.3427379377875
 30
0.0
 41
1.0
 10
594.21038764982
 20
487.0485222692233
 30
0.0
 41
1.0
 10
597.7001754322872
 20
486.6651438357977
 30
0.0
 41
1.0
 10
600.7473361618187
 20
486.3655197355419
 30
0.0
 41
1.0
 10
604.2463986488717
 20
486.0612989457968
 30
0.0
 41
1.0
 10
607.6298055202737
 20
485.8165691948985
 30
0.0
 41
1.0
 10
611.111178008733
 20
485.6245356993274
 30
0.0
 41
1.0
 10
614.170869142258
 20
485.5010491855106
 30
0.0
 41
1.0
 10
617.4657628030725
 20
485.4262181324891
 30
0.0
 41
1.0
 10
620.7846127713747
 20
485.4257940692082
 30
0.0
 41
1.0
 10
624.4252939368309
 20
485.5176815601735
 30
0.0
 41
1.0
 10
626.8561274459057
 20
485.60705944659
 30
0.0
 41
1.0
 10
628.2820744872219
 20
485.6534662333858
 30
0.0
 41
1.0
  0
SPLINE
  5
97
330
2
100
AcDbEntity
  8
OUTLINE
  6
CONTINUOUS
100
AcDbSpline
210
0.0
220
0.0
230
1.0
 70
    12
 71
     3
 72
    10
 73
     6
 74
     0
 42
0.0000000001
 43
0.0000000001
 40
0.0
 40
0.0
 40
0.0
 40
0.0
 40
0.441454051102356
 40
0.8823227060996025
 40
1.0
 40
1.0
 40
1.0
 40
1.0
 10
590.4898155760982
 20
487.513134104921
 30
0.0
 41
1.0
 10
589.5427068674514
 20
487.6372654473906
 30
0.0
 41
1.0
 10
587.9498401777625
 20
487.8479103784279
 30
0.0
 41
0.9999999999999998
 10
585.9688731858997
 20
488.1292026869686
 30
0.0
 41
1.0
 10
584.8815558164201
 20
488.2945108330376
 30
0.0
 41
1.0
 10
584.653076821035
 20
488.3298130033224
 30
0.0
 41
1.0
  0
SPLINE
  5
98
330
2
100
AcDbEntity
  8
OUTLINE
  6
CONTINUOUS
100
AcDbSpline
210
0.0
220
0.0
230
1.0
 70
    12
 71
     3
 72
     8
 73
     4
 74
     0
 42
0.0000000001
 43
0.0000000001
 40
0.0
 40
0.0
 40
0.0
 40
0.0
 40
1.0
 40
1.0
 40
1.0
 40
1.0
 10
583.0353414229522
 20
488.3264709628368
 30
0.0
 41
1.0
 10
583.5727914699465
 20
488.4001983872622
 30
0.0
 41
0.9939376879002423
 10
584.1152748464328
 20
488.4009414327494
 30
0.0
 41
0.9939376879002423
 10
584.6529254417974
 20
488.3286865855801
 30
0.0
 41
1.0
  0
SPLINE
  5
99
330
2
100
AcDbEntity
  8
OUTLINE
  6
CONTINUOUS
100
AcDbSpline
210
0.0
220
0.0
230
1.0
 70
    12
 71
     3
 72
     8
 73
     4
 74
     0
 42
0.0000000001
 43
0.0000000001
 40
0.0
 40
0.0
 40
0.0
 40
0.0
 40
1.0
 40
1.0
 40
1.0
 40
1.0
 10
669.0205236900444
 20
496.7828334499277
 30
0.0
 41
1.0
 10
669.3931707235454
 20
496.7394527814819
 30
0.0
 41
0.9745411979497847
 10
669.7397132709234
 20
496.5957309510051
 30
0.0
 41
0.974541197949785
 10
670.0336836578307
 20
496.3626449153925
 30
0.0
 41
1.0
  0
SPLINE
  5
9A
330
2
100
AcDbEntity
  8
OUTLINE
  6
CONTINUOUS
100
AcDbSpline
210
0.0
220
0.0
230
1.0
 70
    12
 71
     3
 72
     8
 73
     4
 74
     0
 42
0.0000000001
 43
0.0000000001
 40
0.0
 40
0.0
 40
0.0
 40
0.0
 40
1.0
 40
1.0
 40
1.0
 40
1.0
 10
690.1767957884856
 20
458.3206081311537
 30
0.0
 41
1.0
 10
688.7041957692288
 20
473.0647768279485
 30
0.0
 41
0.9494849087719796
 10
682.0084828781451
 20
486.8679596785046
 30
0.0
 41
0.9485854507188383
 10
670.033683841416
 20
496.3626450987996
 30
0.0
 41
0.9972228208404944
  0
SPLINE
  5
9B
330
2
100
AcDbEntity
  8
OUTLINE
  6
CONTINUOUS
100
AcDbSpline
210
0.0
220
0.0
230
1.0
 70
    12
 71
     3
 72
    15
 73
    11
 74
     0
 42
0.0000000001
 43
0.0000000001
 40
0.0
 40
0.0
 40
0.0
 40
0.0
 40
0.2421708694058849
 40
0.2421708694058849
 40
0.2421708694058849
 40
0.7536659586934773
 40
0.96678891256332
 40
0.96678891256332
 40
0.96678891256332
 40
1.0
 40
1.0
 40
1.0
 40
1.0
 10
633.6174721721256
 20
458.2778442595391
 30
0.0
 41
1.0
 10
633.6001484063959
 20
460.6412862497111
 30
0.0
 41
0.9960955042375907
 10
633.4583784985786
 20
462.9713134496263
 30
0.0
 41
0.9933210064537407
 10
633.1940508159757
 20
465.2712249921918
 30
0.0
 41
0.9916757905200519
 10
632.6331165083343
 20
470.1519067129487
 30
0.0
 41
0.9886437678057648
 10
631.0728290005823
 20
476.7660487815886
 30
0.0
 41
0.9914811780654996
 10
628.5257229006519
 20
483.0087063294678
 30
0.0
 41
1.004423354001725
 10
627.7062843475397
 20
484.7921013054905
 30
0.0
 41
1.009103991013805
 10
627.5787958300748
 20
485.0695624777137
 30
0.0
 41
1.006039408692146
 10
627.4494779064418
 20
485.3460684783889
 30
0.0
 41
1.003004832392609
 10
627.318348704028
 20
485.6216336838357
 30
0.0
 41
1.0
  0
LINE
  5
9C
330
2
100
AcDbEntity
  8
OUTLINE
  6
CONTINUOUS
100
AcDbLine
 10
689.7780556722473
 20
457.8800541425332
 30
0.0
 11
634.0181877948212
 21
457.8800541425332
 31
0.0
  0
LINE
  5
9D
330
2
100
AcDbEntity
  8
OUTLINE
  6
CONTINUOUS
100
AcDbLine
 10
633.1008077019547
 20
412.2831378636574
 30
0.0
 11
691.2062614718531
 21
412.2831378636574
 31
0.0
  0
LINE
  5
9E
330
2
100
AcDbEntity
  8
OUTLINE
  6
CONTINUOUS
100
AcDbLine
 10
691.2373383786264
 20
412.7885436165898
 30
0.0
 11
633.0792727107986
 21
412.8411415267303
 31
0.0
  0
LWPOLYLINE
  5
9F
330
2
100
AcDbEntity
  8
OUTLINE
  6
CONTINUOUS
100
AcDbPolyline
 90
       35
 70
     0
 43
0.0
 10
590.499999592393
 20
489.7935704885908
 10
591.1995393440947
 20
489.6989385497063
 10
591.900022601963
 20
489.6056868921831
 10
592.8284608081103
 20
489.4847213264958
 10
593.7585264201766
 20
489.3666508412953
 10
594.6901692691
 20
489.2516007989273
 10
595.6941086320767
 20
489.1313286598848
 10
596.699754420001
 20
489.0147703795006
 10
597.7070475396117
 20
488.9020061028467
 10
598.7204195318387
 20
488.7926318879245
 10
599.7353742681191
 20
488.6872250301879
 10
600.7518742339591
 20
488.5859263825005
 10
601.9146427804169
 20
488.4754916714621
 10
603.0792357668323
 20
488.3708253162183
 10
604.2455107382332
 20
488.2720617968653
 10
605.3680788970057
 20
488.1828442340636
 10
606.4919526259298
 20
488.0994154966113
 10
607.6170113513518
 20
488.0219574237658
 10
608.7699260039185
 20
487.9490382811736
 10
609.9238368803396
 20
487.8828495774616
 10
611.078633849115
 20
487.8237386663144
 10
612.0907597531561
 20
487.7780617004424
 10
613.1034540753383
 20
487.7383613439681
 10
614.1166888857656
 20
487.7049158066721
 10
615.2042671717045
 20
487.6763246461993
 10
616.2921368697882
 20
487.6556896935111
 10
617.3800245352847
 20
487.6434413093585
 10
618.4729165874888
 20
487.6400045689002
 10
619.5658234293374
 20
487.6458301649917
 10
620.65897916175
 20
487.661262723568
 10
621.8618949983156
 20
487.6893847284722
 10
623.0659648311102
 20
487.7271424961363
 10
624.2717937576514
 20
487.7716440392878
 10
626.2035314401114
 20
487.8505416278112
 10
628.1398380440621
 20
487.931351075367
  0
LINE
  5
A0
330
2
100
AcDbEntity
  8
OUTLINE
  6
CONTINUOUS
100
AcDbLine
 10
584.765509626825
 20
488.3124705363321
 30
0.0
 11
584.749426775497
 21
488.3149438456582
 31
0.0
  0
ARC
  5
A1
330
2
100
AcDbEntity
  8
OUTLINE
  6
CONTINUOUS
100
AcDbCircle
 10
893.5513406641366
 20
413.4529610242086
 30
0.0
 40
260.4727864999786
100
AcDbArc
 50
171.0197644519994
 51
180.1345810736005
  0
LINE
  5
A2
330
2
100
AcDbEntity
  8
OUTLINE
  6
CONTINUOUS
100
AcDbLine
 10
633.6327798257465
 20
412.2876344117822
 30
0.0
 11
633.0792727107986
 21
412.8411415267303
 31
0.0
  0
ARC
  5
A3
330
2
100
AcDbEntity
  8
OUTLINE
  6
CONTINUOUS
100
AcDbCircle
 10
634.0181882833077
 20
458.2807814871446
 30
0.0
 40
0.4007273446112075
100
AcDbArc
 50
180.4199674339989
 51
269.9999301966991
  0
ARC
  5
A4
330
2
100
AcDbEntity
  8
OUTLINE
  6
CONTINUOUS
100
AcDbCircle
 10
656.0621331509127
 20
450.9835826995234
 30
0.0
 40
20.03636820232423
100
AcDbArc
 50
159.8671731514993
 51
171.0197644519994
  0
LWPOLYLINE
  5
A5
330
2
100
AcDbEntity
  8
OUTLINE
  6
CONTINUOUS
100
AcDbPolyline
 90
       76
 70
     0
 43
0.0
 10
647.4508664343627
 20
486.9871515743515
 10
647.5592568620039
 20
486.9919457631268
 10
647.6687827285903
 20
486.9972825804317
 10
648.0433554240622
 20
487.0196509113908
 10
648.4161187757786
 20
487.0481272779001
 10
648.7857766326827
 20
487.0827633281066
 10
649.1613030340353
 20
487.1246894349605
 10
649.5359888432207
 20
487.173429866557
 10
649.9090078642044
 20
487.2289520746167
 10
650.2523758513294
 20
487.286300093923
 10
650.5942119627328
 20
487.3493697185663
 10
650.9343542252159
 20
487.4180440311293
 10
651.2225272751136
 20
487.4808221835191
 10
651.5093254939429
 20
487.5474509291552
 10
651.8272023879553
 20
487.6260709242161
 10
652.1432350705225
 20
487.7091168207706
 10
652.4652256332923
 20
487.798628201684
 10
652.7851529037612
 20
487.8923302711538
 10
653.0853254961364
 20
487.9844389636713
 10
653.3835915319033
 20
488.0798569633415
 10
653.6646054780471
 20
488.1731900586832
 10
653.9438829294637
 20
488.2691351534885
 10
654.293746177796
 20
488.3936459986448
 10
654.6408163908645
 20
488.5217064519263
 10
654.9687179567491
 20
488.646663283797
 10
655.2940602689091
 20
488.77429468911
 10
655.6713898876976
 20
488.9266670920301
 10
656.0451795130123
 20
489.0820010773455
 10
656.4154182915526
 20
489.2399711859122
 10
656.7013928289102
 20
489.3646781638707
 10
656.9851717069062
 20
489.4906672257511
 10
657.3207079189057
 20
489.64241938406
 10
657.6530572475648
 20
489.7956139761433
 10
658.0242228343633
 20
489.9699910667707
 10
658.3911972545372
 20
490.1457196368803
 10
658.7538952681673
 20
490.3225615117597
 10
659.130001378154
 20
490.5091930932238
 10
659.5012093005964
 20
490.6965842614203
 10
659.8673839659283
 20
490.8845022967381
 10
660.1879420558033
 20
491.051491778049
 10
660.5043389522587
 20
491.2185768933465
 10
660.7763570431448
 20
491.3640239928861
 10
661.0450653516148
 20
491.5093391497358
 10
661.3388023246392
 20
491.6700631417008
 10
661.6283110349058
 20
491.830406512797
 10
661.9476156660168
 20
492.0094808883084
 10
662.2615302151412
 20
492.1877531811523
 10
662.5699833484007
 20
492.3650110887764
 10
662.8310753300072
 20
492.5166427619918
 10
663.0879568118976
 20
492.6672368394578
 10
663.3405505562774
 20
492.8166725451525
 10
663.6045204496078
 20
492.9742785512329
 10
663.8634251530659
 20
493.130304327825
 10
664.1171479820573
 20
493.2846185894306
 10
664.3270272305709
 20
493.4133469710751
 10
664.5330624693879
 20
493.5406940282651
 10
664.7328027000789
 20
493.6651007215743
 10
664.9286382068707
 20
493.7880148645422
 10
665.1378652523646
 20
493.9204028223163
 10
665.3422563997767
 20
494.0508455989745
 10
665.5688825589587
 20
494.196834326829
 10
665.7889725787351
 20
494.3400570568956
 10
666.0023802613412
 20
494.4803840476803
 10
666.2344139008897
 20
494.6347061134513
 10
666.4576431823681
 20
494.7850326629247
 10
666.6199451513334
 20
494.8955741277326
 10
666.7770777793812
 20
495.0036718645081
 10
666.9289787766492
 20
495.1092542869136
 10
667.0507912219155
 20
495.1947501816821
 10
667.1689415488375
 20
495.2784282272558
 10
667.2929558294748
 20
495.3671134574157
 10
667.4125926741887
 20
495.4535584573131
 10
667.5544431871323
 20
495.5572824232175
 10
667.689518834556
 20
495.6574086889038
 10
667.817787464501
 20
495.7538432337147
 10
667.872210441737
 20
495.7953614662322
  0
LWPOLYLINE
  5
A6
330
2
100
AcDbEntity
  8
OUTLINE
  6
CONTINUOUS
100
AcDbPolyline
 90
       21
 70
     0
 43
0.0
 10
628.1398380452643
 20
487.931351075367
 10
628.8397092329585
 20
487.958294841239
 10
629.5271926234504
 20
487.9798809952616
 10
630.4262176262275
 20
488.0004823116965
 10
631.3070573359152
 20
488.0119280453506
 10
632.1719062497654
 20
488.0144300623841
 10
633.0542085037308
 20
488.0079324352831
 10
633.9241141040181
 20
487.9930573606009
 10
634.7840620496768
 20
487.9707955549973
 10
636.0153563494466
 20
487.9274694001034
 10
637.2382173454507
 20
487.873435074312
 10
638.4596985630063
 20
487.8088655187304
 10
639.6867748838843
 20
487.7327482720306
 10
640.8955528981416
 20
487.6463445747016
 10
642.1227386472438
 20
487.546783593468
 10
643.3747834370148
 20
487.4329338285348
 10
644.2481966668323
 20
487.3464053198595
 10
645.1383641021586
 20
487.2527637834639
 10
646.047410372629
 20
487.1519668268001
 10
646.7427854385721
 20
487.0715987628036
 10
647.4508664343627
 20
486.9871515743515
  0
LWPOLYLINE
  5
A7
330
2
100
AcDbEntity
  8
OUTLINE
  6
CONTINUOUS
100
AcDbPolyline
 90
       26
 70
     0
 43
0.0
 10
628.2813687376982
 20
485.653442781914
 10
628.9578482136862
 20
485.6729210839556
 10
629.6050228309608
 20
485.6883409979803
 10
630.4363670052566
 20
485.703702639033
 10
631.2478089015484
 20
485.71417923119
 10
632.057199072936
 20
485.7220496264154
 10
633.2942164583299
 20
485.7340531857838
 10
634.5518180931803
 20
485.7478887933197
 10
635.8141328143965
 20
485.7621615210763
 10
637.0687927361167
 20
485.7744528555883
 10
638.3206818224687
 20
485.7879766988379
 10
639.5783627700807
 20
485.8024144349027
 10
640.2113780726558
 20
485.8086031136291
 10
640.8443899409972
 20
485.8147840635272
 10
641.4753758351752
 20
485.8225363283326
 10
642.1067885256345
 20
485.8309190983741
 10
642.7272480456958
 20
485.8408240268992
 10
643.0373326238053
 20
485.8456459956981
 10
643.3471805956489
 20
485.8503094784277
 10
643.4986406649844
 20
485.8528831611422
 10
643.6506064458415
 20
485.8557376876188
 10
643.9545640512276
 20
485.8612619495564
 10
644.5617638518529
 20
485.8721940513127
 10
645.7948419914863
 20
485.8980282892708
 10
646.4352796768955
 20
485.9121307607938
 10
647.1022453374708
 20
485.9280172573165
  0
ARC
  5
A8
330
2
100
AcDbEntity
  8
OUTLINE
  6
CONTINUOUS
100
AcDbCircle
 10
430.7653992823778
 20
413.4529610242086
 30
0.0
 40
260.4727864999786
100
AcDbArc
 50
359.8538490139997
 51
8.980235548000182
  0
LINE
  5
A9
330
2
100
AcDbEntity
  8
OUTLINE
  6
CONTINUOUS
100
AcDbLine
 10
691.2373383786264
 20
412.7885436165898
 30
0.0
 11
690.7364291738188
 21
412.2876344117822
 31
0.0
  0
ARC
  5
AA
330
2
100
AcDbEntity
  8
OUTLINE
  6
CONTINUOUS
100
AcDbCircle
 10
689.7780539839827
 20
458.2807822116596
 30
0.0
 40
0.4007257545250278
100
AcDbArc
 50
270.0002413352
 51
5.703727015599217
  0
ARC
  5
AB
330
2
100
AcDbEntity
  8
OUTLINE
  6
CONTINUOUS
100
AcDbCircle
 10
668.2546067956017
 20
450.9835826995234
 30
0.0
 40
20.03636820232423
100
AcDbArc
 50
8.980235548000182
 51
20.13282684850119
  0
LINE
  5
AC
330
2
100
AcDbEntity
  8
OUTLINE
  6
CONTINUOUS
100
AcDbLine
 10
691.2062684657477
 20
290.6618749999998
 30
0.0
 11
633.1008007080602
 21
290.6618749999998
 31
0.0
  0
POINT
  5
C5
330
2
100
AcDbEntity
  8
OUTLINE
 62
     5
100
AcDbPoint
 10
662.153534586904
 20
290.6618749999998
 30
0.0
  0
ENDSEC
  0
SECTION
  2
OBJECTS
  0
DICTIONARY
  5
A
330
0
100
AcDbDictionary
  3
ACAD_COLOR
350
33
  3
ACAD_GROUP
350
2F
  3
ACAD_LAYOUT
350
F
  3
ACAD_MATERIAL
350
32
  3
ACAD_MLINESTYLE
350
30
  3
ACAD_PLOTSETTINGS
350
31
  3
ACAD_PLOTSTYLENAME
350
9
  3
ACAD_TABLESTYLE
350
34
  3
ACDBVARIABLEDICTIONARY
350
AE
  3
ACDBHEADERROUNDTRIPXREC
350
DA
  0
DICTIONARY
  5
18
330
17
100
AcDbDictionary
280
     1
  3
ACAD_LAYERFILTERS
360
19
  3
ACLYDICTIONARY
360
1A
  0
DICTIONARY
  5
3
330
2
100
AcDbDictionary
280
     1
  3
ACAD_LAYOUTSELFREF
360
FB
  3
ACAD_SORTENTS
360
AD
  0
DICTIONARY
  5
12
330
11
100
AcDbDictionary
280
     1
  3
ACAD_LAYOUTSELFREF
360
FC
  0
DICTIONARY
  5
33
102
{ACAD_REACTORS
330
A
102
}
330
A
100
AcDbDictionary
  0
DICTIONARY
  5
2F
102
{ACAD_REACTORS
330
A
102
}
330
A
100
AcDbDictionary
  0
DICTIONARY
  5
F
102
{ACAD_REACTORS
330
A
102
}
330
A
100
AcDbDictionary
  0
DICTIONARY
  5
32
102
{ACAD_REACTORS
330
A
102
}
330
A
100
AcDbDictionary
  0
DICTIONARY
  5
30
102
{ACAD_REACTORS
330
A
102
}
330
A
100
AcDbDictionary
  3
STANDARD
350
38
  0
DICTIONARY
  5
31
102
{ACAD_REACTORS
330
A
102
}
330
A
100
AcDbDictionary
  0
ACDBDICTIONARYWDFLT
  5
9
102
{ACAD_REACTORS
330
A
102
}
330
A
100
AcDbDictionary
281
     1
  3
Normal
350
8
100
AcDbDictionaryWithDefault
340
8
1001
ACAD
1000
TREAT_AS_HARD
1070
     0
  0
DICTIONARY
  5
34
102
{ACAD_REACTORS
330
A
102
}
330
A
100
AcDbDictionary
  3
STANDARD
350
39
  0
DICTIONARY
  5
AE
102
{ACAD_REACTORS
330
A
102
}
330
A
100
AcDbDictionary
  3
CTABLESTYLE
350
AF
  3
DIMASSOC
350
BE
  3
HIDETEXT
350
BD
  3
PROJECTNAME
350
BF
  0
DICTIONARY
  5
DA
102
{ACAD_REACTORS
330
A
102
}
330
A
100
AcDbDictionary
  3
TSTACKALIGN
350
DB
  3
TSTACKSIZE
350
DC
  3
HYPERLINKBASE
350
DD
  3
STYLESHEET
350
DE
  3
LAYOUTDICT
350
DF
  3
PLOTSETDICT
350
E0
  3
PLOTSTYLNAMDICT
350
E1
  3
LWETCUNION
350
E2
  3
INSUNITS
350
E3
  3
CEPSNTYPE
350
E4
  3
FINGERPRINTGUID
350
E5
  3
VERSIONGUID
350
E6
  3
PSVPSCALE
350
E7
  3
DIMSTYLEDATA
350
E8
  3
PUCSORTHOREF
350
E9
  3
PUCSORTHOVIEW
350
EA
  3
PUCSBASE
350
EB
  3
PUCSORGTOP
350
EC
  3
PUCSORGBOTTOM
350
ED
  3
PUCSORGLEFT
350
EE
  3
PUCSORGRIGHT
350
EF
  3
PUCSORGFRONT
350
F0
  3
PUCSORGBACK
350
F1
  3
UCSORTHOREF
350
F2
  3
UCSORTHOVIEW
350
F3
  3
UCSBASE
350
F4
  3
UCSORGTOP
350
F5
  3
UCSORGBOTTOM
350
F6
  3
UCSORGLEFT
350
F7
  3
UCSORGRIGHT
350
F8
  3
UCSORGFRONT
350
F9
  3
UCSORGBACK
350
FA
  0
DICTIONARY
  5
19
102
{ACAD_REACTORS
330
18
102
}
330
18
100
AcDbDictionary
  0
DICTIONARY
  5
1A
102
{ACAD_REACTORS
330
18
102
}
330
18
100
AcDbDictionary
1001
ACAD
1000
<All
  0
XRECORD
  5
FB
102
{ACAD_REACTORS
330
3
102
}
330
3
100
AcDbXrecord
340
2
  0
SORTENTSTABLE
  5
AD
102
{ACAD_REACTORS
330
3
102
}
330
3
100
AcDbSortentsTable
330
2
  0
XRECORD
  5
FC
102
{ACAD_REACTORS
330
12
102
}
330
12
100
AcDbXrecord
340
11
  0
MLINESTYLE
  5
38
102
{ACAD_REACTORS
330
30
102
}
330
30
100
AcDbMlineStyle
  2
STANDARD
 70
     0
  3

 62
   256
 51
90.0
 52
90.0
 71
     2
 49
0.5
 62
   256
  6
BYLAYER
 49
-0.5
 62
   256
  6
BYLAYER
  0
ACDBPLACEHOLDER
  5
8
102
{ACAD_REACTORS
330
9
102
}
330
9
100
AcDbPlaceHolder
280
     0
  0
ACAD_PROXY_OBJECT
  5
39
102
{ACAD_REACTORS
330
34
102
}
330
34
100
AcDbProxyObject
 90
      499
 91
      506
 93
     1841
310
4214DD185B99185C9928B81E85EB51B8AE3F2E07A17AD46E2B8FC02B5E8DC0F42B1CFD028000000C1008070000C3001FDFF8000000C1003FBFF000000182007F7FE00000030400FEFFC00000060801FDFF8000000C1003FBFF00000018200000000000000681FA0B0000001820100E000186003FBFF000000182007F7FE000
310
00030400FEFFC00000060801FDFF8000000C1003FBFF000000182007F7FE000000304000AD7A3703D0AC73F4160000003040201C00030C007F7FE00000030400FEFFC00000060801FDFF8000000C1003FBFF000000182007F7FE00000030400FEFFC000000608000
340
1C
340
1C
340
1C
 94
        0
1001
ACAD
1000
AcadProxyRoundTripData
1071
      503
1071
   393239
1070
     0
  0
DICTIONARYVAR
  5
AF
102
{ACAD_REACTORS
330
AE
102
}
330
AE
100
DictionaryVariables
280
     0
  1
STANDARD
  0
DICTIONARYVAR
  5
BE
102
{ACAD_REACTORS
330
AE
102
}
330
AE
100
DictionaryVariables
280
     0
  1
1
  0
DICTIONARYVAR
  5
BD
102
{ACAD_REACTORS
330
AE
102
}
330
AE
100
DictionaryVariables
280
     0
  1
1
  0
DICTIONARYVAR
  5
BF
102
{ACAD_REACTORS
330
AE
102
}
330
AE
100
DictionaryVariables
280
     0
  1

  0
XRECORD
  5
DB
102
{ACAD_REACTORS
330
DA
102
}
330
DA
100
AcDbXrecord
 90
        1
  0
XRECORD
  5
DC
102
{ACAD_REACTORS
330
DA
102
}
330
DA
100
AcDbXrecord
 90
       70
  0
XRECORD
  5
DD
102
{ACAD_REACTORS
330
DA
102
}
330
DA
100
AcDbXrecord
  1

  0
XRECORD
  5
DE
102
{ACAD_REACTORS
330
DA
102
}
330
DA
100
AcDbXrecord
  1

  0
XRECORD
  5
DF
102
{ACAD_REACTORS
330
DA
102
}
330
DA
100
AcDbXrecord
340
F
  0
XRECORD
  5
E0
102
{ACAD_REACTORS
330
DA
102
}
330
DA
100
AcDbXrecord
340
31
  0
XRECORD
  5
E1
102
{ACAD_REACTORS
330
DA
102
}
330
DA
100
AcDbXrecord
340
9
  0
XRECORD
  5
E2
102
{ACAD_REACTORS
330
DA
102
}
330
DA
100
AcDbXrecord
 90
    10781
  0
XRECORD
  5
E3
102
{ACAD_REACTORS
330
DA
102
}
330
DA
100
AcDbXrecord
 90
        0
  0
XRECORD
  5
E4
102
{ACAD_REACTORS
330
DA
102
}
330
DA
100
AcDbXrecord
 90
        0
  0
XRECORD
  5
E5
102
{ACAD_REACTORS
330
DA
102
}
330
DA
100
AcDbXrecord
  1
{D1B54455-2796-485D-9991-00732839FFBF}
  0
XRECORD
  5
E6
102
{ACAD_REACTORS
330
DA
102
}
330
DA
100
AcDbXrecord
  1
{97EE6B58-8720-48BF-846E-49E5FB0D6F23}
  0
XRECORD
  5
E7
102
{ACAD_REACTORS
330
DA
102
}
330
DA
100
AcDbXrecord
 40
0.0
  0
XRECORD
  5
E8
102
{ACAD_REACTORS
330
DA
102
}
330
DA
100
AcDbXrecord
1000
DSTYLE
1002
{
1070
    79
 70
     2
1070
   341
340
28
1070
   342
340
28
1002
}
  0
XRECORD
  5
E9
102
{ACAD_REACTORS
330
DA
102
}
330
DA
100
AcDbXrecord
340
0
  0
XRECORD
  5
EA
102
{ACAD_REACTORS
330
DA
102
}
330
DA
100
AcDbXrecord
 70
     0
  0
XRECORD
  5
EB
102
{ACAD_REACTORS
330
DA
102
}
330
DA
100
AcDbXrecord
340
0
  0
XRECORD
  5
EC
102
{ACAD_REACTORS
330
DA
102
}
330
DA
100
AcDbXrecord
 10
0.0
 20
0.0
 30
0.0
  0
XRECORD
  5
ED
102
{ACAD_REACTORS
330
DA
102
}
330
DA
100
AcDbXrecord
 10
0.0
 20
0.0
 30
0.0
  0
XRECORD
  5
EE
102
{ACAD_REACTORS
330
DA
102
}
330
DA
100
AcDbXrecord
 10
0.0
 20
0.0
 30
0.0
  0
XRECORD
  5
EF
102
{ACAD_REACTORS
330
DA
102
}
330
DA
100
AcDbXrecord
 10
0.0
 20
0.0
 30
0.0
  0
XRECORD
  5
F0
102
{ACAD_REACTORS
330
DA
102
}
330
DA
100
AcDbXrecord
 10
0.0
 20
0.0
 30
0.0
  0
XRECORD
  5
F1
102
{ACAD_REACTORS
330
DA
102
}
330
DA
100
AcDbXrecord
 10
0.0
 20
0.0
 30
0.0
  0
XRECORD
  5
F2
102
{ACAD_REACTORS
330
DA
102
}
330
DA
100
AcDbXrecord
340
0
  0
XRECORD
  5
F3
102
{ACAD_REACTORS
330
DA
102
}
330
DA
100
AcDbXrecord
 70
     0
  0
XRECORD
  5
F4
102
{ACAD_REACTORS
330
DA
102
}
330
DA
100
AcDbXrecord
340
0
  0
XRECORD
  5
F5
102
{ACAD_REACTORS
330
DA
102
}
330
DA
100
AcDbXrecord
 10
0.0
 20
0.0
 30
0.0
  0
XRECORD
  5
F6
102
{ACAD_REACTORS
330
DA
102
}
330
DA
100
AcDbXrecord
 10
0.0
 20
0.0
 30
0.0
  0
XRECORD
  5
F7
102
{ACAD_REACTORS
330
DA
102
}
330
DA
100
AcDbXrecord
 10
0.0
 20
0.0
 30
0.0
  0
XRECORD
  5
F8
102
{ACAD_REACTORS
330
DA
102
}
330
DA
100
AcDbXrecord
 10
0.0
 20
0.0
 30
0.0
  0
XRECORD
  5
F9
102
{ACAD_REACTORS
330
DA
102
}
330
DA
100
AcDbXrecord
 10
0.0
 20
0.0
 30
0.0
  0
XRECORD
  5
FA
102
{ACAD_REACTORS
330
DA
102
}
330
DA
100
AcDbXrecord
 10
0.0
 20
0.0
 30
0.0
  0
ENDSEC
  0
EOF
