  0
SECTION
  2
HEADER
  9
$ACADVER
  1
AC1009
  9
$INSBASE
 10
385.37736629465769
 20
165.5209994801636
 30
0.0
  9
$EXTMIN
 10
98.308137453497679
 20
87.020999480163667
 30
0.0
  9
$EXTMAX
 10
413.39647534328202
 20
194.0461595990632
 30
0.0
  9
$LIMMIN
 10
0.0
 20
0.0
  9
$LIMMAX
 10
420.0
 20
297.0
  9
$ORTHOMODE
 70
     0
  9
$REGENMODE
 70
     1
  9
$FILLMODE
 70
     1
  9
$QTEXTMODE
 70
     0
  9
$MIRRTEXT
 70
     1
  9
$DRAGMODE
 70
     2
  9
$LTSCALE
 40
1.0
  9
$OSMODE
 70
    55
  9
$ATTMODE
 70
     1
  9
$TEXTSIZE
 40
2.5
  9
$TRACEWID
 40
1.0
  9
$TEXTSTYLE
  7
STANDARD
  9
$CLAYER
  8
0
  9
$CELTYPE
  6
BYLAYER
  9
$CECOLOR
 62
   256
  9
$DIMSCALE
 40
1.0
  9
$DIMASZ
 40
2.5
  9
$DIMEXO
 40
0.625
  9
$DIMDLI
 40
3.75
  9
$DIMRND
 40
0.0
  9
$DIMDLE
 40
0.0
  9
$DIMEXE
 40
1.25
  9
$DIMTP
 40
0.0
  9
$DIMTM
 40
0.0
  9
$DIMTXT
 40
2.5
  9
$DIMCEN
 40
2.5
  9
$DIMTSZ
 40
0.0
  9
$DIMTOL
 70
     0
  9
$DIMLIM
 70
     0
  9
$DIMTIH
 70
     0
  9
$DIMTOH
 70
     0
  9
$DIMSE1
 70
     0
  9
$DIMSE2
 70
     0
  9
$DIMTAD
 70
     1
  9
$DIMZIN
 70
     8
  9
$DIMBLK
  1

  9
$DIMASO
 70
     1
  9
$DIMSHO
 70
     1
  9
$DIMPOST
  1

  9
$DIMAPOST
  1

  9
$DIMALT
 70
     0
  9
$DIMALTD
 70
     3
  9
$DIMALTF
 40
0.03937007874016
  9
$DIMLFAC
 40
1.0
  9
$DIMTOFL
 70
     1
  9
$DIMTVP
 40
0.0
  9
$DIMTIX
 70
     0
  9
$DIMSOXD
 70
     0
  9
$DIMSAH
 70
     0
  9
$DIMBLK1
  1

  9
$DIMBLK2
  1

  9
$DIMSTYLE
  2
ISO-25
  9
$DIMCLRD
 70
     0
  9
$DIMCLRE
 70
     0
  9
$DIMCLRT
 70
     0
  9
$DIMTFAC
 40
1.0
  9
$DIMGAP
 40
0.625
  9
$LUNITS
 70
     2
  9
$LUPREC
 70
     4
  9
$SKETCHINC
 40
1.0
  9
$FILLETRAD
 40
10.0
  9
$AUNITS
 70
     0
  9
$AUPREC
 70
     0
  9
$MENU
  1
.
  9
$ELEVATION
 40
0.0
  9
$PELEVATION
 40
0.0
  9
$THICKNESS
 40
0.0
  9
$LIMCHECK
 70
     0
  9
$BLIPMODE
 70
     0
  9
$CHAMFERA
 40
10.0
  9
$CHAMFERB
 40
10.0
  9
$SKPOLY
 70
     0
  9
$TDCREATE
 40
2453440.8845190038
  9
$TDUPDATE
 40
2453440.8884160412
  9
$TDINDWG
 40
0.0038981134
  9
$TDUSRTIMER
 40
0.0038981134
  9
$USRTIMER
 70
     1
  9
$ANGBASE
 50
0.0
  9
$ANGDIR
 70
     0
  9
$PDMODE
 70
     0
  9
$PDSIZE
 40
0.0
  9
$PLINEWID
 40
0.0
  9
$COORDS
 70
     1
  9
$SPLFRAME
 70
     0
  9
$SPLINETYPE
 70
     6
  9
$SPLINESEGS
 70
     8
  9
$ATTDIA
 70
     0
  9
$ATTREQ
 70
     1
  9
$HANDLING
 70
 10241
  9
$HANDSEED
  5
146
  9
$SURFTAB1
 70
     6
  9
$SURFTAB2
 70
     6
  9
$SURFTYPE
 70
     6
  9
$SURFU
 70
     6
  9
$SURFV
 70
     6
  9
$UCSNAME
  2

  9
$UCSORG
 10
0.0
 20
0.0
 30
0.0
  9
$UCSXDIR
 10
1.0
 20
0.0
 30
0.0
  9
$UCSYDIR
 10
0.0
 20
1.0
 30
0.0
  9
$PUCSNAME
  2

  9
$PUCSORG
 10
0.0
 20
0.0
 30
0.0
  9
$PUCSXDIR
 10
1.0
 20
0.0
 30
0.0
  9
$PUCSYDIR
 10
0.0
 20
1.0
 30
0.0
  9
$USERI1
 70
     0
  9
$USERI2
 70
     0
  9
$USERI3
 70
     0
  9
$USERI4
 70
     0
  9
$USERI5
 70
     0
  9
$USERR1
 40
0.0
  9
$USERR2
 40
0.0
  9
$USERR3
 40
0.0
  9
$USERR4
 40
0.0
  9
$USERR5
 40
0.0
  9
$WORLDVIEW
 70
     1
  9
$SHADEDGE
 70
     3
  9
$SHADEDIF
 70
    70
  9
$TILEMODE
 70
     1
  9
$MAXACTVP
 70
    64
  9
$PLIMCHECK
 70
     0
  9
$PEXTMIN
 10
1.0000000000000000E+020
 20
1.0000000000000000E+020
 30
1.0000000000000000E+020
  9
$PEXTMAX
 10
-1.0000000000000000E+020
 20
-1.0000000000000000E+020
 30
-1.0000000000000000E+020
  9
$PLIMMIN
 10
0.0
 20
0.0
  9
$PLIMMAX
 10
420.0
 20
297.0
  9
$UNITMODE
 70
     0
  9
$VISRETAIN
 70
     1
  9
$PLINEGEN
 70
     0
  9
$PSLTSCALE
 70
     1
  0
ENDSEC
  0
SECTION
  2
TABLES
  0
TABLE
  2
VPORT
 70
     7
  0
VPORT
  2
*ACTIVE
 70
     0
 10
0.0
 20
0.0
 11
1.0
 21
1.0
 12
282.12024048096191
 22
148.5
 13
0.0
 23
0.0
 14
10.0
 24
10.0
 15
10.0
 25
10.0
 16
0.0
 26
0.0
 36
1.0
 17
0.0
 27
0.0
 37
0.0
 40
297.0
 41
1.899799599198396
 42
50.0
 43
0.0
 44
0.0
 50
0.0
 51
0.0
 71
     0
 72
   100
 73
     1
 74
     3
 75
     0
 76
     0
 77
     0
 78
     0
  0
ENDTAB
  0
TABLE
  2
LTYPE
 70
     2
  0
LTYPE
  2
CONTINUOUS
 70
     0
  3
Solid line
 72
    65
 73
     0
 40
0.0
  0
LTYPE
  2
CENTER
 70
     0
  3
Center ____ _ ____ _ ____ _ ____ _ ____ _ ____
 72
    65
 73
     4
 40
2.0
 49
1.25
 49
-0.25
 49
0.25
 49
-0.25
  0
ENDTAB
  0
TABLE
  2
LAYER
 70
     1
  0
LAYER
  2
0
 70
     0
 62
     7
  6
CONTINUOUS
  0
ENDTAB
  0
TABLE
  2
STYLE
 70
     1
  0
STYLE
  2
STANDARD
 70
     0
 40
0.0
 41
1.0
 50
0.0
 71
     0
 42
2.5
  3
romant.shx
  4
bigfont.shx
  0
ENDTAB
  0
TABLE
  2
VIEW
 70
     0
  0
ENDTAB
  0
TABLE
  2
UCS
 70
     0
  0
ENDTAB
  0
TABLE
  2
APPID
 70
     1
  0
APPID
  2
ACAD
 70
     0
  0
ENDTAB
  0
TABLE
  2
DIMSTYLE
 70
     2
  0
DIMSTYLE
  2
ISO-25
 70
     0
  3

  4

  5

  6

  7

 40
1.0
 41
2.5
 42
0.625
 43
3.75
 44
1.25
 45
0.0
 46
0.0
 47
0.0
 48
0.0
140
2.5
141
2.5
142
0.0
143
0.03937007874016
144
1.0
145
0.0
146
1.0
147
0.625
 71
     0
 72
     0
 73
     0
 74
     0
 75
     0
 76
     0
 77
     1
 78
     8
170
     0
171
     3
172
     1
173
     0
174
     0
175
     0
176
     0
177
     0
178
     0
  0
DIMSTYLE
  2
STANDARD
 70
     0
  3

  4

  5

  6

  7

 40
1.0
 41
0.18
 42
0.0625
 43
0.38
 44
0.18
 45
0.0
 46
0.0
 47
0.0
 48
0.0
140
0.18
141
0.09
142
0.0
143
25.399999999999999
144
1.0
145
0.0
146
1.0
147
0.09
 71
     0
 72
     0
 73
     1
 74
     1
 75
     0
 76
     0
 77
     0
 78
     0
170
     0
171
     2
172
     0
173
     0
174
     0
175
     0
176
     0
177
     0
178
     0
  0
ENDTAB
  0
ENDSEC
  0
SECTION
  2
BLOCKS
  0
BLOCK
  8
0
  2
$MODEL_SPACE
 70
     0
 10
0.0
 20
0.0
 30
0.0
  3
$MODEL_SPACE
  1

  0
ENDBLK
  5
21
  8
0
  0
BLOCK
 67
     1
  8
0
  2
$PAPER_SPACE
 70
     0
 10
0.0
 20
0.0
 30
0.0
  3
$PAPER_SPACE
  1

  0
ENDBLK
  5
1D
 67
     1
  8
0
  0
ENDSEC
  0
SECTION
  2
ENTITIES
  0
ARC
  5
9F
  8
0
  6
BYBLOCK
 62
     0
 10
172.42492629465761
 20
101.67022048016359
 30
0.0
 40
49.446050999999997
 50
88.047511999999315
 51
124.9265110000001
  0
ARC
  5
A0
  8
0
  6
BYBLOCK
 62
     0
 10
172.42492629465761
 20
229.37177748016359
 30
0.0
 40
49.446050999999997
 50
235.07348899999991
 51
271.95248800000059
  0
ARC
  5
A1
  8
0
  6
BYBLOCK
 62
     0
 10
127.8380702946575
 20
165.5209994801636
 30
0.0
 40
28.431478999999989
 50
55.073488999999867
 51
304.92651100000012
  0
ARC
  5
A2
  8
0
  6
BYBLOCK
 62
     0
 10
111.3218942946575
 20
165.5209994801636
 30
0.0
 40
18.295038999999999
 50
226.39028000000059
 51
250.4900649999995
  0
ARC
  5
A3
  8
0
  6
BYBLOCK
 62
     0
 10
111.3218942946575
 20
165.5209994801636
 30
0.0
 40
18.295038999999999
 50
109.5099350000004
 51
133.6097199999993
  0
CIRCLE
  5
A4
  8
0
  6
BYBLOCK
 62
     0
 10
107.49784029465761
 20
177.2644364801636
 30
0.0
 40
0.24723
  0
CIRCLE
  5
A5
  8
0
  6
BYBLOCK
 62
     0
 10
107.8266882946576
 20
175.36171448016361
 30
0.0
 40
0.24723
  0
LINE
  5
A6
  8
0
  6
BYBLOCK
 62
     0
 10
106.7107292946575
 20
152.86636048016359
 30
0.0
 11
108.6805202946576
 21
154.00361948016359
 31
0.0
  0
LINE
  5
A7
  8
0
  6
BYBLOCK
 62
     0
 10
108.3096742946576
 20
154.6459424801636
 30
0.0
 11
106.3398832946576
 21
153.5086834801636
 31
0.0
  0
ARC
  5
A8
  8
0
  6
BYBLOCK
 62
     0
 10
-39.488560705342358
 20
165.5209994801636
 30
0.0
 40
138.4489429999999
 50
354.8441609999993
 51
0.0
  0
ARC
  5
A9
  8
0
  6
BYBLOCK
 62
     0
 10
99.38513129465764
 20
152.99042048016361
 30
0.0
 40
0.9889209999999998
 50
174.8441609999993
 51
226.39028000000059
  0
LINE
  5
AA
  8
0
  6
BYBLOCK
 62
     0
 10
106.2131942946575
 20
153.03587148016359
 30
0.0
 11
106.23791729465761
 21
152.99304948016359
 31
0.0
  0
ARC
  5
AB
  8
0
  6
BYBLOCK
 62
     0
 10
106.5129452946575
 20
153.20893248016361
 30
0.0
 40
0.346122
 50
120.0000000000008
 51
209.99999999999969
  0
ARC
  5
AC
  8
0
  6
BYBLOCK
 62
     0
 10
106.53766829465761
 20
153.16611148016361
 30
0.0
 40
0.346122
 50
209.99999999999969
 51
300.0000000000008
  0
ARC
  5
AD
  8
0
  6
BYBLOCK
 62
     0
 10
-39.488560705342358
 20
165.5209994801636
 30
0.0
 40
138.4489429999999
 50
0.0
 51
5.1558390000007002
  0
ARC
  5
AE
  8
0
  6
BYBLOCK
 62
     0
 10
99.38513129465764
 20
178.05157748016359
 30
0.0
 40
0.9889209999999998
 50
133.6097199999993
 51
185.1558390000007
  0
LINE
  5
AF
  8
0
  6
BYBLOCK
 62
     0
 10
106.2131942946575
 20
178.0061274801636
 30
0.0
 11
106.1884712946575
 21
177.9633054801636
 31
0.0
  0
CIRCLE
  5
B0
  8
0
  6
BYBLOCK
 62
     0
 10
107.1689922946576
 20
179.16715848016361
 30
0.0
 40
0.24723
  0
CIRCLE
  5
B1
  8
0
  6
BYBLOCK
 62
     0
 10
106.7561492946576
 20
175.97979048016359
 30
0.0
 40
0.24723
  0
CIRCLE
  5
B2
  8
0
  6
BYBLOCK
 62
     0
 10
105.6856112946576
 20
176.59786548016351
 30
0.0
 40
0.24723
  0
CIRCLE
  5
B3
  8
0
  6
BYBLOCK
 62
     0
 10
106.42730229465749
 20
177.8825124801636
 30
0.0
 40
0.24723
  0
ARC
  5
B4
  8
0
  6
BYBLOCK
 62
     0
 10
112.86289429465759
 20
156.84652948016361
 30
0.0
 40
0.741691
 50
316.26020500000072
 51
103.7397949999997
  0
LINE
  5
B5
  8
0
  6
BYBLOCK
 62
     0
 10
112.92763429465759
 20
154.12223848016359
 30
0.0
 11
110.2119842946576
 21
153.0322104801636
 31
0.0
  0
LINE
  5
B6
  8
0
  6
BYBLOCK
 62
     0
 10
110.2119842946576
 20
153.0322104801636
 30
0.0
 11
108.2341422946576
 21
156.4579334801636
 31
0.0
  0
LINE
  5
B7
  8
0
  6
BYBLOCK
 62
     0
 10
108.2341422946576
 20
156.4579334801636
 30
0.0
 11
110.5359582946575
 21
158.26474248016359
 31
0.0
  0
LINE
  5
B8
  8
0
  6
BYBLOCK
 62
     0
 10
111.2694782946576
 20
158.12302448016359
 30
0.0
 11
111.5406872946576
 21
157.65327648016361
 31
0.0
  0
LINE
  5
B9
  8
0
  6
BYBLOCK
 62
     0
 10
112.9714282946576
 20
155.8871844801636
 30
0.0
 11
113.3987562946575
 21
156.33373648016359
 31
0.0
  0
LINE
  5
BA
  8
0
  6
BYBLOCK
 62
     0
 10
112.0863432946575
 20
157.42019548016361
 30
0.0
 11
112.6867322946576
 21
157.5669964801636
 31
0.0
  0
LINE
  5
BB
  8
0
  6
BYBLOCK
 62
     0
 10
112.90045429465761
 20
155.29809148016361
 30
0.0
 11
113.17166329465751
 21
154.8283434801636
 31
0.0
  0
LINE
  5
BC
  8
0
  6
BYBLOCK
 62
     0
 10
108.8072092946576
 20
154.4764314801636
 30
0.0
 11
108.7824862946576
 21
154.5192524801636
 31
0.0
  0
ARC
  5
BD
  8
0
  6
BYBLOCK
 62
     0
 10
113.3286692946576
 20
155.54532248016361
 30
0.0
 40
0.494461
 50
136.26020500000081
 51
209.99999999999969
  0
ARC
  5
BE
  8
0
  6
BYBLOCK
 62
     0
 10
108.5074582946576
 20
154.30337048016361
 30
0.0
 40
0.346122
 50
300.0000000000008
 51
29.99999999999973
  0
ARC
  5
BF
  8
0
  6
BYBLOCK
 62
     0
 10
108.4827352946576
 20
154.34619148016361
 30
0.0
 40
0.346122
 50
29.99999999999973
 51
120.0000000000008
  0
ARC
  5
C0
  8
0
  6
BYBLOCK
 62
     0
 10
111.96890329465759
 20
157.90050648016361
 30
0.0
 40
0.494461
 50
209.99999999999969
 51
283.73979499999962
  0
ARC
  5
C1
  8
0
  6
BYBLOCK
 62
     0
 10
110.84126329465759
 20
157.87579448016359
 30
0.0
 40
0.494461
 50
29.99999999999973
 51
128.1301020000009
  0
ARC
  5
C2
  8
0
  6
BYBLOCK
 62
     0
 10
112.7434482946575
 20
154.58111348016351
 30
0.0
 40
0.494461
 50
291.86989799999958
 51
29.99999999999973
  0
ARC
  5
C3
  8
0
  6
BYBLOCK
 62
     0
 10
112.8381712946576
 20
174.15264748016361
 30
0.0
 40
0.741691
 50
256.26020500000033
 51
43.739794999999177
  0
LINE
  5
C4
  8
0
  6
BYBLOCK
 62
     0
 10
110.5112352946575
 20
172.73443448016371
 30
0.0
 11
108.20941929465759
 21
174.54124348016359
 31
0.0
  0
LINE
  5
C5
  8
0
  6
BYBLOCK
 62
     0
 10
108.20941929465759
 20
174.54124348016359
 30
0.0
 11
110.1872612946576
 21
177.96696648016359
 31
0.0
  0
LINE
  5
C6
  8
0
  6
BYBLOCK
 62
     0
 10
110.1872612946576
 20
177.96696648016359
 30
0.0
 11
112.9029112946576
 21
176.8769384801636
 31
0.0
  0
LINE
  5
C7
  8
0
  6
BYBLOCK
 62
     0
 10
113.1469402946576
 20
176.17083348016359
 30
0.0
 11
112.8757312946576
 21
175.70108548016361
 31
0.0
  0
LINE
  5
C8
  8
0
  6
BYBLOCK
 62
     0
 10
112.0616202946575
 20
173.57898148016361
 30
0.0
 11
112.66200929465759
 21
173.43218048016359
 31
0.0
  0
LINE
  5
C9
  8
0
  6
BYBLOCK
 62
     0
 10
112.9467052946576
 20
175.11199248016359
 30
0.0
 11
113.37403329465749
 21
174.6654404801636
 31
0.0
  0
LINE
  5
CA
  8
0
  6
BYBLOCK
 62
     0
 10
111.51596429465749
 20
173.34590048016361
 30
0.0
 11
111.24475529465759
 21
172.8761524801636
 31
0.0
  0
LINE
  5
CB
  8
0
  6
BYBLOCK
 62
     0
 10
108.75776329465759
 20
176.47992448016359
 30
0.0
 11
108.7824862946576
 21
176.52274548016359
 31
0.0
  0
CIRCLE
  5
CC
  8
0
  6
BYBLOCK
 62
     0
 10
108.2395312946575
 20
178.54908248016361
 30
0.0
 40
0.24723
  0
CIRCLE
  5
CD
  8
0
  6
BYBLOCK
 62
     0
 10
108.56837829465761
 20
176.64636048016359
 30
0.0
 40
0.24723
  0
CIRCLE
  5
CE
  8
0
  6
BYBLOCK
 62
     0
 10
109.31006929465759
 20
177.9310064801636
 30
0.0
 40
0.24723
  0
ARC
  5
CF
  8
0
  6
BYBLOCK
 62
     0
 10
111.9441802946576
 20
173.09867048016361
 30
0.0
 40
0.494461
 50
76.260205000000312
 51
149.9999999999998
  0
ARC
  5
D0
  8
0
  6
BYBLOCK
 62
     0
 10
110.8165402946576
 20
173.1233824801636
 30
0.0
 40
0.494461
 50
231.8698979999989
 51
330.00000000000023
  0
ARC
  5
D1
  8
0
  6
BYBLOCK
 62
     0
 10
112.7187252946575
 20
176.41806348016351
 30
0.0
 40
0.494461
 50
330.00000000000023
 51
68.130102000000363
  0
ARC
  5
D2
  8
0
  6
BYBLOCK
 62
     0
 10
113.30394629465761
 20
175.45385448016361
 30
0.0
 40
0.494461
 50
149.9999999999998
 51
223.73979499999919
  0
ARC
  5
D3
  8
0
  6
BYBLOCK
 62
     0
 10
344.10960929465762
 20
173.53906848016359
 30
0.0
 40
9.0
 50
5.165338000001066
 51
91.704368000000585
  0
ARC
  5
D4
  8
0
  6
BYBLOCK
 62
     0
 10
376.60941729465759
 20
161.11907548016359
 30
0.0
 40
27.0
 50
132.4120460000008
 51
160.207819
  0
LINE
  5
D5
  8
0
  6
BYBLOCK
 62
     0
 10
275.34619429465761
 20
185.4943984801636
 30
0.0
 11
377.70929829465757
 21
190.77912848016359
 31
0.0
  0
ARC
  5
D6
  8
0
  6
BYBLOCK
 62
     0
 10
344.10960929465762
 20
157.5029294801636
 30
0.0
 40
9.0
 50
268.29563199999939
 51
354.8346619999989
  0
ARC
  5
D7
  8
0
  6
BYBLOCK
 62
     0
 10
376.60941729465759
 20
169.92292348016349
 30
0.0
 40
27.0
 50
199.79218099999991
 51
227.58795399999909
  0
LINE
  5
D8
  8
0
  6
BYBLOCK
 62
     0
 10
275.34619429465761
 20
145.5475994801636
 30
0.0
 11
377.70929829465757
 21
140.2628694801636
 31
0.0
  0
ARC
  5
D9
  8
0
  6
BYBLOCK
 62
     0
 10
385.32736629465762
 20
490.0209964801636
 30
0.0
 40
400.0
 50
264.56175299999978
 51
270.42993799999942
  0
ARC
  5
DA
  8
0
  6
BYBLOCK
 62
     0
 10
350.42949429465762
 20
403.97845648016357
 30
0.0
 40
300.0
 50
269.42093900000049
 51
277.25764099999958
  0
LINE
  5
DB
  8
0
  6
BYBLOCK
 62
     0
 10
236.61938229465761
 20
182.08542648016359
 30
0.0
 11
266.2395922946576
 21
182.76122948016359
 31
0.0
  0
ARC
  5
DC
  8
0
  6
BYBLOCK
 62
     0
 10
276.37736629465758
 20
165.5209994801636
 30
0.0
 40
20.0
 50
93.148358999999374
 51
266.85164100000048
  0
LINE
  5
DD
  8
0
  6
BYBLOCK
 62
     0
 10
236.38666429465761
 20
148.96450548016361
 30
0.0
 11
266.2395922946576
 21
148.2807694801636
 31
0.0
  0
LINE
  5
DE
  8
0
  6
BYBLOCK
 62
     0
 10
236.61938229465761
 20
148.95657248016369
 30
0.0
 11
174.10959029465761
 21
151.08756448016359
 31
0.0
  0
LINE
  5
DF
  8
0
  6
BYBLOCK
 62
     0
 10
174.10959029465761
 20
179.9544344801636
 30
0.0
 11
236.61938229465761
 21
182.08542648016359
 31
0.0
  0
POLYLINE
  5
E0
  8
0
  6
BYBLOCK
 62
     0
 66
     1
 10
0.0
 20
0.0
 30
0.0
  0
VERTEX
  5
131
  8
0
  6
BYBLOCK
 62
     0
 10
236.38666429465761
 20
148.96450548016361
 30
0.0
  0
VERTEX
  5
132
  8
0
  6
BYBLOCK
 62
     0
 10
237.69542429465761
 20
149.12702348016359
 30
0.0
  0
VERTEX
  5
133
  8
0
  6
BYBLOCK
 62
     0
 10
238.9714902946576
 20
149.78766348016359
 30
0.0
  0
VERTEX
  5
134
  8
0
  6
BYBLOCK
 62
     0
 10
240.17608729465761
 20
150.92635248016359
 30
0.0
  0
VERTEX
  5
135
  8
0
  6
BYBLOCK
 62
     0
 10
241.27261729465761
 20
152.50849348016359
 30
0.0
  0
VERTEX
  5
136
  8
0
  6
BYBLOCK
 62
     0
 10
242.2277602946576
 20
154.48601248016359
 30
0.0
  0
VERTEX
  5
137
  8
0
  6
BYBLOCK
 62
     0
 10
243.01249529465761
 20
156.79882348016361
 30
0.0
  0
VERTEX
  5
138
  8
0
  6
BYBLOCK
 62
     0
 10
243.60297829465759
 20
159.37665348016361
 30
0.0
  0
VERTEX
  5
139
  8
0
  6
BYBLOCK
 62
     0
 10
243.98126929465749
 20
162.14117648016361
 30
0.0
  0
VERTEX
  5
13A
  8
0
  6
BYBLOCK
 62
     0
 10
244.13587229465759
 20
165.00839448016359
 30
0.0
  0
VERTEX
  5
13B
  8
0
  6
BYBLOCK
 62
     0
 10
244.06209129465759
 20
167.89118648016361
 30
0.0
  0
VERTEX
  5
13C
  8
0
  6
BYBLOCK
 62
     0
 10
243.76216729465759
 20
170.70196248016359
 30
0.0
  0
VERTEX
  5
13D
  8
0
  6
BYBLOCK
 62
     0
 10
243.24521329465759
 20
173.35531648016359
 30
0.0
  0
VERTEX
  5
13E
  8
0
  6
BYBLOCK
 62
     0
 10
242.52693629465759
 20
175.77062948016359
 30
0.0
  0
VERTEX
  5
13F
  8
0
  6
BYBLOCK
 62
     0
 10
241.62916129465759
 20
177.87451248016359
 30
0.0
  0
VERTEX
  5
140
  8
0
  6
BYBLOCK
 62
     0
 10
240.57916729465759
 20
179.60304048016349
 30
0.0
  0
VERTEX
  5
141
  8
0
  6
BYBLOCK
 62
     0
 10
239.4088562946576
 20
180.90369248016361
 30
0.0
  0
VERTEX
  5
142
  8
0
  6
BYBLOCK
 62
     0
 10
238.1537892946576
 20
181.73694948016359
 30
0.0
  0
VERTEX
  5
143
  8
0
  6
BYBLOCK
 62
     0
 10
236.8521002946575
 20
182.07749248016361
 30
0.0
  0
VERTEX
  5
144
  8
0
  6
BYBLOCK
 62
     0
 10
236.38666429465761
 20
182.07749248016361
 30
0.0
  0
SEQEND
  5
145
  8
0
  6
BYBLOCK
 62
     0
  0
LINE
  5
E1
  8
0
  6
BYBLOCK
 62
     0
 10
275.93123029465761
 20
180.51436348016361
 30
0.0
 11
343.84192729465752
 21
182.53508748016361
 31
0.0
  0
LINE
  5
E2
  8
0
  6
BYBLOCK
 62
     0
 10
275.93123029465761
 20
150.52763548016361
 30
0.0
 11
343.84192729465752
 21
148.50691148016369
 31
0.0
  0
ARC
  5
E3
  8
0
  6
BYBLOCK
 62
     0
 10
276.37736629465758
 20
165.5209994801636
 30
0.0
 40
15.0
 50
90.0
 51
270.0
  0
LINE
  5
E4
  8
0
  6
BYBLOCK
 62
     0
 10
345.81042529465759
 20
93.678468480163644
 30
0.0
 11
345.38011829465762
 21
101.88920748016371
 31
0.0
  0
ARC
  5
E5
  8
0
  6
BYBLOCK
 62
     0
 10
347.80768429465758
 20
93.783139480163641
 30
0.0
 40
2.0
 50
182.99999999999909
 51
258.77085299999959
  0
ARC
  5
E6
  8
0
  6
BYBLOCK
 62
     0
 10
347.37737729465761
 20
101.9938794801636
 30
0.0
 40
2.0
 50
89.420939000000587
 51
182.99999999999909
  0
ARC
  5
E7
  8
0
  6
BYBLOCK
 62
     0
 10
364.37736629465769
 20
165.5209994801636
 30
0.0
 40
14.0
 50
180.0
 51
199.79218099999991
  0
ARC
  5
E8
  8
0
  6
BYBLOCK
 62
     0
 10
364.37736629465769
 20
165.5209994801636
 30
0.0
 40
14.0
 50
160.207819
 51
180.0
  0
ARC
  5
E9
  8
0
  6
BYBLOCK
 62
     0
 10
385.37736629465769
 20
165.5209994801636
 30
0.0
 40
26.0
 50
270.0
 51
90.0
  0
LINE
  5
EA
  8
0
  6
BYBLOCK
 62
     0
 10
402.87736629465758
 20
117.5209994801636
 30
0.0
 11
367.87736629465758
 21
117.5209994801636
 31
0.0
  0
LINE
  5
EB
  8
0
  6
BYBLOCK
 62
     0
 10
402.87736629465758
 20
114.0209994801636
 30
0.0
 11
367.8773742946575
 21
114.0209994801636
 31
0.0
  0
LINE
  5
EC
  8
0
  6
BYBLOCK
 62
     0
 10
402.87736629465758
 20
117.5209994801636
 30
0.0
 11
367.87736629465758
 21
117.5209994801636
 31
0.0
  0
LINE
  5
ED
  8
0
  6
BYBLOCK
 62
     0
 10
401.87736629465769
 20
114.0209994801636
 30
0.0
 11
368.87736629465769
 21
114.0209994801636
 31
0.0
  0
ARC
  5
EE
  8
0
  6
BYBLOCK
 62
     0
 10
385.37736629465769
 20
147.0209994801636
 30
0.0
 40
60.0
 50
255.26279600000041
 51
284.73720399999962
  0
ARC
  5
EF
  8
0
  6
BYBLOCK
 62
     0
 10
385.37736629465769
 20
179.5209994801636
 30
0.0
 40
40.0
 50
227.58795399999909
 51
270.0
  0
TEXT
  5
F0
  8
0
  6
BYBLOCK
 62
     0
 10
370.12737129465762
 20
100.7404834801636
 30
0.0
 40
6.0
  1
Éà
 50
270.00000099999971
 41
0.972222
  0
LINE
  5
F1
  8
0
  6
BYBLOCK
 62
     0
 10
367.8773742946575
 20
114.0209994801636
 30
0.0
 11
367.8773742946575
 21
117.5209994801636
 31
0.0
  0
LINE
  5
F2
  8
0
  6
BYBLOCK
 62
     0
 10
367.62736629465758
 20
98.023837480163664
 30
0.0
 11
362.62736629465769
 21
93.523837480163635
 31
0.0
  0
LINE
  5
F3
  8
0
  6
BYBLOCK
 62
     0
 10
367.62736629465758
 20
98.023837480163664
 30
0.0
 11
362.62736629465769
 21
102.52383748016361
 31
0.0
  0
LINE
  5
F4
  8
0
  6
BYBLOCK
 62
     0
 10
355.62736629465758
 20
95.523837480163664
 30
0.0
 11
355.62736629465758
 21
100.52383748016361
 31
0.0
  0
LINE
  5
F5
  8
0
  6
BYBLOCK
 62
     0
 10
362.62736629465769
 20
95.523837480163664
 30
0.0
 11
355.62736629465758
 21
95.523837480163664
 31
0.0
  0
LINE
  5
F6
  8
0
  6
BYBLOCK
 62
     0
 10
362.62736629465769
 20
93.523837480163635
 30
0.0
 11
362.62736629465769
 21
95.523837480163664
 31
0.0
  0
LINE
  5
F7
  8
0
  6
BYBLOCK
 62
     0
 10
355.62736629465758
 20
100.52383748016361
 30
0.0
 11
362.62736629465769
 21
100.52383748016361
 31
0.0
  0
LINE
  5
F8
  8
0
  6
BYBLOCK
 62
     0
 10
362.62736629465769
 20
102.52383748016361
 30
0.0
 11
362.62736629465769
 21
100.52383748016361
 31
0.0
  0
ARC
  5
F9
  8
0
  6
BYBLOCK
 62
     0
 10
370.87736629465769
 20
91.896140480163695
 30
0.0
 40
3.0
 50
210.26455399999821
 51
255.26279600000041
  0
ARC
  5
FA
  8
0
  6
BYBLOCK
 62
     0
 10
368.87736629465769
 20
113.0209994801636
 30
0.0
 40
1.0
 50
90.0
 51
180.0
  0
LINE
  5
FB
  8
0
  6
BYBLOCK
 62
     0
 10
367.87736629465758
 20
113.0209994801636
 30
0.0
 11
367.87736629465758
 21
104.48626648016359
 31
0.0
  0
LINE
  5
FC
  8
0
  6
BYBLOCK
 62
     0
 10
367.87736629465758
 20
140.77046548016361
 30
0.0
 11
367.87736629465758
 21
117.5209994801636
 31
0.0
  0
LINE
  5
FD
  8
0
  6
BYBLOCK
 62
     0
 10
367.87736629465758
 20
117.5209994801636
 30
0.0
 11
367.87736629465758
 21
131.5209994801636
 31
0.0
  0
LINE
  5
FE
  8
0
  6
BYBLOCK
 62
     0
 10
382.95983429465758
 20
98.512489480163651
 30
0.0
 11
382.95983429465758
 21
101.18230448016359
 31
0.0
  0
TEXT
  5
FF
  8
0
  6
BYBLOCK
 62
     0
 10
377.12737129465762
 20
100.7404834801636
 30
0.0
 40
6.0
  1
Å‗
 50
270.00000099999971
 41
0.972222
  0
ARC
  5
100
  8
0
  6
BYBLOCK
 62
     0
 10
385.37736629465769
 20
151.5209994801636
 30
0.0
 40
40.0
 50
90.0
 51
132.4120460000008
  0
CIRCLE
  5
101
  8
0
  6
BYBLOCK
 62
     0
 10
360.87736629465758
 20
173.5209994801636
 30
0.0
 40
2.1000000000000001
  0
LINE
  5
102
  8
0
  6
BYBLOCK
 62
     0
 10
364.9773662946576
 20
173.5209994801636
 30
0.0
 11
356.77736629465761
 21
173.5209994801636
 31
0.0
  0
CIRCLE
  5
103
  8
0
  6
BYBLOCK
 62
     0
 10
360.87736629465758
 20
157.5209994801636
 30
0.0
 40
2.1000000000000001
  0
LINE
  5
104
  8
0
  6
BYBLOCK
 62
     0
 10
364.9773662946576
 20
157.5209994801636
 30
0.0
 11
356.77736629465761
 21
157.5209994801636
 31
0.0
  0
LINE
  5
105
  8
0
  6
BYBLOCK
 62
     0
 10
360.87736629465758
 20
161.62099948016359
 30
0.0
 11
360.87736629465758
 21
153.42099948016369
 31
0.0
  0
LINE
  5
106
  8
0
  6
BYBLOCK
 62
     0
 10
360.87736629465758
 20
177.62099948016359
 30
0.0
 11
360.87736629465758
 21
169.4209994801636
 31
0.0
  0
LINE
  5
107
  8
0
  6
BYBLOCK
 62
     0
 10
411.37736629465758
 20
165.5209994801636
 30
0.0
 11
411.37736629465758
 21
135.61105148016361
 31
0.0
  0
LINE
  5
108
  8
0
  6
BYBLOCK
 62
     0
 10
402.87736629465758
 20
117.5209994801636
 30
0.0
 11
402.87736629465758
 21
114.0209994801636
 31
0.0
  0
LINE
  5
109
  8
0
  6
BYBLOCK
 62
     0
 10
402.87736629465758
 20
91.896140480163695
 30
0.0
 11
402.87736629465758
 21
113.0209994801636
 31
0.0
  0
ARC
  5
10A
  8
0
  6
BYBLOCK
 62
     0
 10
399.87736629465769
 20
91.896140480163695
 30
0.0
 40
3.0
 50
284.73720399999962
 51
0.0
  0
ARC
  5
10B
  8
0
  6
BYBLOCK
 62
     0
 10
401.87736629465769
 20
113.0209994801636
 30
0.0
 40
1.0
 50
0.0
 51
90.0
  0
ARC
  5
10C
  8
0
  6
BYBLOCK
 62
     0
 10
387.87736629465758
 20
135.61105148016361
 30
0.0
 40
23.5
 50
309.66501299999948
 51
0.0
  0
ENDSEC
  0
EOF
