  0
SECTION
  2
HEADER
  9
$ACADVER
  1
AC1014
  9
$ACADMAINTVER
 70
     9
  9
$DWGCODEPAGE
  3
ANSI_932
  9
$INSBASE
 10
205.9999999999996
 20
400.4819171865281
 30
0.0
  9
$EXTMIN
 10
180.9082475495742
 20
395.5797581012252
 30
-0.00000001
  9
$EXTMAX
 10
257.0559491088797
 20
673.981917186528
 30
0.00000001
  9
$LIMMIN
 10
36.0
 20
25.5
  9
$LIMMAX
 10
1224.0
 20
865.4999999999999
  9
$ORTHOMODE
 70
     1
  9
$REGENMODE
 70
     1
  9
$FILLMODE
 70
     1
  9
$QTEXTMODE
 70
     0
  9
$MIRRTEXT
 70
     0
  9
$DRAGMODE
 70
     2
  9
$LTSCALE
 40
2.0
  9
$OSMODE
 70
   513
  9
$ATTMODE
 70
     1
  9
$TEXTSIZE
 40
0.2
  9
$TRACEWID
 40
0.05
  9
$TEXTSTYLE
  7
STANDARD
  9
$CLAYER
  8
0
  9
$CELTYPE
  6
CONTINUOUS
  9
$CECOLOR
 62
   256
  9
$CELTSCALE
 40
1.0
  9
$DELOBJ
 70
     1
  9
$DISPSILH
 70
     0
  9
$DIMSCALE
 40
3.0
  9
$DIMASZ
 40
2.0
  9
$DIMEXO
 40
2.0
  9
$DIMDLI
 40
7.0
  9
$DIMRND
 40
0.0
  9
$DIMDLE
 40
0.0
  9
$DIMEXE
 40
0.5
  9
$DIMTP
 40
0.0
  9
$DIMTM
 40
0.0
  9
$DIMTXT
 40
2.0
  9
$DIMCEN
 40
0.09
  9
$DIMTSZ
 40
0.0
  9
$DIMTOL
 70
     0
  9
$DIMLIM
 70
     0
  9
$DIMTIH
 70
     0
  9
$DIMTOH
 70
     0
  9
$DIMSE1
 70
     0
  9
$DIMSE2
 70
     0
  9
$DIMTAD
 70
     1
  9
$DIMZIN
 70
     8
  9
$DIMBLK
  1
OPEN
  9
$DIMASO
 70
     1
  9
$DIMSHO
 70
     1
  9
$DIMPOST
  1

  9
$DIMAPOST
  1

  9
$DIMALT
 70
     0
  9
$DIMALTD
 70
     2
  9
$DIMALTF
 40
0.03937
  9
$DIMLFAC
 40
1.0
  9
$DIMTOFL
 70
     1
  9
$DIMTVP
 40
0.0
  9
$DIMTIX
 70
     0
  9
$DIMSOXD
 70
     0
  9
$DIMSAH
 70
     0
  9
$DIMBLK1
  1

  9
$DIMBLK2
  1

  9
$DIMSTYLE
  2
G1
  9
$DIMCLRD
 70
     0
  9
$DIMCLRE
 70
     0
  9
$DIMCLRT
 70
     7
  9
$DIMTFAC
 40
1.0
  9
$DIMGAP
 40
0.8
  9
$DIMJUST
 70
     0
  9
$DIMSD1
 70
     0
  9
$DIMSD2
 70
     0
  9
$DIMTOLJ
 70
     1
  9
$DIMTZIN
 70
     0
  9
$DIMALTZ
 70
     0
  9
$DIMALTTZ
 70
     0
  9
$DIMFIT
 70
     3
  9
$DIMUPT
 70
     0
  9
$DIMUNIT
 70
     2
  9
$DIMDEC
 70
     2
  9
$DIMTDEC
 70
     2
  9
$DIMALTU
 70
     2
  9
$DIMALTTD
 70
     2
  9
$DIMTXSTY
  7
STANDARD
  9
$DIMAUNIT
 70
     0
  9
$LUNITS
 70
     2
  9
$LUPREC
 70
     4
  9
$SKETCHINC
 40
0.1
  9
$FILLETRAD
 40
5.0
  9
$AUNITS
 70
     0
  9
$AUPREC
 70
     0
  9
$MENU
  1
.
  9
$ELEVATION
 40
0.0
  9
$PELEVATION
 40
0.0
  9
$THICKNESS
 40
0.0
  9
$LIMCHECK
 70
     0
  9
$BLIPMODE
 70
     0
  9
$CHAMFERA
 40
0.0
  9
$CHAMFERB
 40
0.0
  9
$CHAMFERC
 40
0.0
  9
$CHAMFERD
 40
0.0
  9
$SKPOLY
 70
     0
  9
$TDCREATE
 40
2452110.000000000
  9
$TDUPDATE
 40
2453944.014337014
  9
$TDINDWG
 40
0.6225132407
  9
$TDUSRTIMER
 40
0.6225130556
  9
$USRTIMER
 70
     1
  9
$ANGBASE
 50
0.0
  9
$ANGDIR
 70
     0
  9
$PDMODE
 70
     3
  9
$PDSIZE
 40
0.0
  9
$PLINEWID
 40
0.0
  9
$COORDS
 70
     1
  9
$SPLFRAME
 70
     0
  9
$SPLINETYPE
 70
     6
  9
$SPLINESEGS
 70
     8
  9
$ATTDIA
 70
     0
  9
$ATTREQ
 70
     1
  9
$HANDLING
 70
 10241
  9
$HANDSEED
  5
517
  9
$SURFTAB1
 70
     6
  9
$SURFTAB2
 70
     6
  9
$SURFTYPE
 70
     6
  9
$SURFU
 70
     6
  9
$SURFV
 70
     6
  9
$UCSNAME
  2

  9
$UCSORG
 10
0.0
 20
0.0
 30
0.0
  9
$UCSXDIR
 10
1.0
 20
0.0
 30
0.0
  9
$UCSYDIR
 10
0.0
 20
1.0
 30
0.0
  9
$PUCSNAME
  2

  9
$PUCSORG
 10
0.0
 20
0.0
 30
0.0
  9
$PUCSXDIR
 10
1.0
 20
0.0
 30
0.0
  9
$PUCSYDIR
 10
0.0
 20
1.0
 30
0.0
  9
$USERI1
 70
     0
  9
$USERI2
 70
     0
  9
$USERI3
 70
     0
  9
$USERI4
 70
     0
  9
$USERI5
 70
     0
  9
$USERR1
 40
0.0
  9
$USERR2
 40
0.0
  9
$USERR3
 40
0.0
  9
$USERR4
 40
0.0
  9
$USERR5
 40
0.0
  9
$WORLDVIEW
 70
     1
  9
$SHADEDGE
 70
     3
  9
$SHADEDIF
 70
    70
  9
$TILEMODE
 70
     1
  9
$MAXACTVP
 70
    48
  9
$PINSBASE
 10
0.0
 20
0.0
 30
0.0
  9
$PLIMCHECK
 70
     0
  9
$PEXTMIN
 10
1.000000000000000E+20
 20
1.000000000000000E+20
 30
1.000000000000000E+20
  9
$PEXTMAX
 10
-1.000000000000000E+20
 20
-1.000000000000000E+20
 30
-1.000000000000000E+20
  9
$PLIMMIN
 10
0.0
 20
0.0
  9
$PLIMMAX
 10
12.0
 20
9.0
  9
$UNITMODE
 70
     0
  9
$VISRETAIN
 70
     1
  9
$PLINEGEN
 70
     0
  9
$PSLTSCALE
 70
     1
  9
$TREEDEPTH
 70
  3020
  9
$PICKSTYLE
 70
     1
  9
$CMLSTYLE
  2
STANDARD
  9
$CMLJUST
 70
     0
  9
$CMLSCALE
 40
1.0
  9
$PROXYGRAPHICS
 70
     1
  9
$MEASUREMENT
 70
     0
  0
ENDSEC
  0
SECTION
  2
CLASSES
  0
CLASS
  1
ACDBDICTIONARYWDFLT
  2
AcDbDictionaryWithDefault
  3
AutoCAD 2000
 90
        0
280
     0
281
     0
  0
CLASS
  1
ACDBPLACEHOLDER
  2
AcDbPlaceHolder
  3
AutoCAD 2000
 90
        0
280
     0
281
     0
  0
CLASS
  1
LAYOUT
  2
AcDbLayout
  3
AutoCAD 2000
 90
        0
280
     0
281
     0
  0
CLASS
  1
DICTIONARYVAR
  2
AcDbDictionaryVar
  3
AutoCAD 2000
 90
        0
280
     0
281
     0
  0
CLASS
  1
TABLESTYLE
  2
AcDbTableStyle
  3
ObjectDBX Classes
 90
     2047
280
     0
281
     0
  0
CLASS
  1
SORTENTSTABLE
  2
AcDbSortentsTable
  3
AutoCAD 2000
 90
        0
280
     0
281
     0
  0
CLASS
  1
ACAD_PROXY_OBJECT_WRAPPER
  2
AcDbProxyObjectWrapper
  3
AutoCAD 2000
 90
        0
280
     0
281
     0
  0
CLASS
  1
LONG_TRANSACTION
  2
AcDbLongTransaction
  3
AutoCAD 2000
 90
        0
280
     0
281
     0
  0
CLASS
  1
LWPOLYLINE
  2
AcDbPolyline
  3
AutoCAD 2000
 90
        0
280
     0
281
     1
  0
CLASS
  1
HATCH
  2
AcDbHatch
  3
AutoCAD 2000
 90
        0
280
     0
281
     1
  0
CLASS
  1
XRECORD
  2
AcDbXrecord
  3
AutoCAD 2000
 90
        0
280
     0
281
     0
  0
CLASS
  1
LONG_TRANSACTION
  2
AcDbLongTransaction
  3
AutoCAD 2000
 90
        0
280
     0
281
     0
  0
CLASS
  1
LWPOLYLINE
  2
AcDbPolyline
  3
AutoCAD 2000
 90
        0
280
     0
281
     1
  0
CLASS
  1
HATCH
  2
AcDbHatch
  3
AutoCAD 2000
 90
        0
280
     0
281
     1
  0
CLASS
  1
XRECORD
  2
AcDbXrecord
  3
AutoCAD 2000
 90
        0
280
     0
281
     0
  0
ENDSEC
  0
SECTION
  2
TABLES
  0
TABLE
  2
VPORT
  5
20
330
0
100
AcDbSymbolTable
 70
     2
  0
VPORT
  5
4F3
330
20
100
AcDbSymbolTableRecord
100
AcDbViewportTableRecord
  2
*ACTIVE
 70
     0
 10
0.0
 20
0.0
 11
1.0
 21
1.0
 12
226.8680824303877
 22
537.0481588006348
 13
0.0
 23
0.0
 14
1.0
 24
1.0
 15
0.0
 25
0.0
 16
0.0
 26
0.0
 36
1.0
 17
0.0
 27
0.0
 37
0.0
 40
277.2857265010675
 41
1.933867735470941
 42
50.0
 43
0.0
 44
0.0
 50
0.0
 51
0.0
 71
     0
 72
   100
 73
     1
 74
     1
 75
     0
 76
     0
 77
     0
 78
     0
  0
ENDTAB
  0
TABLE
  2
LTYPE
  5
1B
330
0
100
AcDbSymbolTable
 70
     1
  0
LTYPE
  5
1C
330
1B
100
AcDbSymbolTableRecord
100
AcDbLinetypeTableRecord
  2
BYBLOCK
 70
     0
  3

 72
    65
 73
     0
 40
0.0
  0
LTYPE
  5
1D
330
1B
100
AcDbSymbolTableRecord
100
AcDbLinetypeTableRecord
  2
BYLAYER
 70
     0
  3

 72
    65
 73
     0
 40
0.0
  0
LTYPE
  5
C
330
1B
100
AcDbSymbolTableRecord
100
AcDbLinetypeTableRecord
  2
CONTINUOUS
 70
     0
  3
Solid line
 72
    65
 73
     0
 40
0.0
  0
ENDTAB
  0
TABLE
  2
LAYER
  5
17
330
0
100
AcDbSymbolTable
 70
     2
  0
LAYER
  5
7
330
17
100
AcDbSymbolTableRecord
100
AcDbLayerTableRecord
  2
0
 70
     0
 62
     7
  6
CONTINUOUS
  0
LAYER
  5
35
330
17
100
AcDbSymbolTableRecord
100
AcDbLayerTableRecord
  2
OUTLINE
 70
     0
 62
     7
  6
CONTINUOUS
  0
ENDTAB
  0
TABLE
  2
STYLE
  5
18
330
0
100
AcDbSymbolTable
 70
     1
  0
STYLE
  5
19
330
18
100
AcDbSymbolTableRecord
100
AcDbTextStyleTableRecord
  2
STANDARD
 70
     0
 40
0.0
 41
1.0
 50
0.0
 71
     0
 42
0.2
  3
romans.shx
  4
bigfont.shx
  0
ENDTAB
  0
TABLE
  2
VIEW
  5
1E
330
0
100
AcDbSymbolTable
 70
     0
  0
ENDTAB
  0
TABLE
  2
UCS
  5
1F
330
0
100
AcDbSymbolTable
 70
     0
  0
ENDTAB
  0
TABLE
  2
APPID
  5
22
330
0
100
AcDbSymbolTable
 70
     2
  0
APPID
  5
B
330
22
100
AcDbSymbolTableRecord
100
AcDbRegAppTableRecord
  2
ACAD
 70
     0
  0
APPID
  5
10
330
22
100
AcDbSymbolTableRecord
100
AcDbRegAppTableRecord
  2
ACAD_PSEXT
 70
     0
  0
ENDTAB
  0
TABLE
  2
DIMSTYLE
  5
23
330
0
100
AcDbSymbolTable
 70
     1
  0
DIMSTYLE
105
24
330
23
100
AcDbSymbolTableRecord
100
AcDbDimStyleTableRecord
  2
G1
 70
     0
  3

  4

  5
OPEN
  6

  7

 40
3.0
 41
2.0
 42
2.0
 43
7.0
 44
0.5
 45
0.0
 46
0.0
 47
0.0
 48
0.0
140
2.0
141
0.09
142
0.0
143
0.03937
144
1.0
145
0.0
146
1.0
147
0.8
 71
     0
 72
     0
 73
     0
 74
     0
 75
     0
 76
     0
 77
     1
 78
     8
170
     0
171
     2
172
     1
173
     0
174
     0
175
     0
176
     0
177
     0
178
     7
270
     2
271
     2
272
     2
273
     2
274
     2
340
19
275
     0
280
     0
281
     0
282
     0
283
     1
284
     0
285
     0
286
     0
287
     3
288
     0
  0
ENDTAB
  0
TABLE
  2
BLOCK_RECORD
  5
1
330
0
100
AcDbSymbolTable
 70
     1
  0
BLOCK_RECORD
  5
2
102
{ACAD_XDICTIONARY
360
3
102
}
330
1
100
AcDbSymbolTableRecord
100
AcDbBlockTableRecord
  2
*MODEL_SPACE
  0
BLOCK_RECORD
  5
11
102
{ACAD_XDICTIONARY
360
12
102
}
330
1
100
AcDbSymbolTableRecord
100
AcDbBlockTableRecord
  2
*PAPER_SPACE
  0
BLOCK_RECORD
  5
25
330
1
100
AcDbSymbolTableRecord
100
AcDbBlockTableRecord
  2
_OPEN
  0
ENDTAB
  0
ENDSEC
  0
SECTION
  2
BLOCKS
  0
BLOCK
  5
6
330
2
100
AcDbEntity
  8
0
100
AcDbBlockBegin
  2
*MODEL_SPACE
 70
     0
 10
0.0
 20
0.0
 30
0.0
  3
*MODEL_SPACE
  1

  0
ENDBLK
  5
D
330
2
100
AcDbEntity
  8
0
100
AcDbBlockEnd
  0
BLOCK
  5
14
330
11
100
AcDbEntity
 67
     1
  8
0
100
AcDbBlockBegin
  2
*PAPER_SPACE
 70
     0
 10
0.0
 20
0.0
 30
0.0
  3
*PAPER_SPACE
  1

  0
ENDBLK
  5
15
330
11
100
AcDbEntity
 67
     1
  8
0
100
AcDbBlockEnd
  0
BLOCK
  5
26
330
25
100
AcDbEntity
  8
0
100
AcDbBlockBegin
  2
_OPEN
 70
     0
 10
0.0
 20
0.0
 30
0.0
  3
_OPEN
  1

  0
LINE
  5
27
330
25
100
AcDbEntity
  8
0
 62
     0
100
AcDbLine
 10
-0.9659259999999999
 20
0.258819
 30
0.0
 11
0.0
 21
0.0
 31
0.0
  0
LINE
  5
28
330
25
100
AcDbEntity
  8
0
 62
     0
100
AcDbLine
 10
0.0
 20
0.0
 30
0.0
 11
-0.9659259999999999
 21
-0.258819
 31
0.0
  0
LINE
  5
29
330
25
100
AcDbEntity
  8
0
 62
     0
100
AcDbLine
 10
0.0
 20
0.0
 30
0.0
 11
-1.0
 21
0.0
 31
0.0
  0
ENDBLK
  5
2A
330
25
100
AcDbEntity
  8
0
100
AcDbBlockEnd
  0
ENDSEC
  0
SECTION
  2
ENTITIES
  0
LINE
  5
34
330
2
100
AcDbEntity
  8
OUTLINE
  6
CONTINUOUS
 48
25.4
100
AcDbLine
 10
228.7372897864983
 20
464.8805790875281
 30
0.0
 11
229.6717666624981
 21
438.1043512270279
 31
0.0
  0
ARC
  5
36
330
2
100
AcDbEntity
  8
OUTLINE
  6
CONTINUOUS
 48
25.4
100
AcDbCircle
 10
1271.760208694998
 20
460.5104029935279
 30
0.0
 40
1043.064518385665
100
AcDbArc
 50
181.4044349002999
 51
183.2707313180998
  0
ARC
  5
37
330
2
100
AcDbEntity
  8
OUTLINE
  6
CONTINUOUS
 48
25.4
100
AcDbCircle
 10
1037.297755341998
 20
457.251564626028
 30
0.0
 40
808.5964557930754
100
AcDbArc
 50
179.4594128967001
 51
181.5807810972998
  0
ELLIPSE
  5
38
330
2
100
AcDbEntity
  8
OUTLINE
  6
CONTINUOUS
 48
25.4
100
AcDbEllipse
 10
205.9999999999983
 20
392.3788135950278
 30
0.0
 11
60.0000000000001
 21
-0.0000000000001787
 31
0.0
210
0.0
220
0.0
230
1.0
 40
0.7683850599000001
 41
1.183331156533356
 42
1.958262518036189
  0
ARC
  5
39
330
2
100
AcDbEntity
  8
OUTLINE
  6
CONTINUOUS
 48
25.4
100
AcDbCircle
 10
-591.7048703745016
 20
457.165331715528
 30
0.0
 40
775.3493067252541
100
AcDbArc
 50
358.3665823176993
 51
0.5979309999996078
  0
SPLINE
  5
3A
330
2
100
AcDbEntity
  8
OUTLINE
  6
CONTINUOUS
 48
25.4
100
AcDbSpline
210
0.0
220
0.0
230
1.0
 70
     8
 71
     3
 72
    16
 73
    12
 74
     0
 42
0.0000000001
 43
0.0000000001
 40
0.0
 40
0.0
 40
0.0
 40
0.0
 40
0.1250000000000003
 40
0.1250000000000003
 40
0.1875000000000004
 40
0.1875000000000004
 40
0.2500000000000004
 40
0.2500000000000004
 40
0.3125000000000004
 40
0.3125000000000004
 40
0.351202415601729
 40
0.351202415601729
 40
0.351202415601729
 40
0.351202415601729
 10
228.3977838540586
 20
465.2566252679029
 30
0.0
 10
228.4288840674926
 20
467.0355418380864
 30
0.0
 10
228.0019613120058
 20
468.6781548347901
 30
0.0
 10
226.5617412583684
 20
470.9690206040528
 30
0.0
 10
225.9511713104599
 20
471.6906050506131
 30
0.0
 10
224.4872824034938
 20
473.025916056572
 30
0.0
 10
223.6309735164524
 20
473.6451907026864
 30
0.0
 10
221.6405943373275
 20
474.7897528063671
 30
0.0
 10
220.5098998694765
 20
475.309246674869
 30
0.0
 10
218.5340537130438
 20
476.0330630718572
 30
0.0
 10
217.7395309049475
 20
476.2850299694759
 30
0.0
 10
216.903447531012
 20
476.511790624289
 30
0.0
  0
SPLINE
  5
3B
330
2
100
AcDbEntity
  8
OUTLINE
  6
CONTINUOUS
 48
25.4
100
AcDbSpline
210
0.0
220
0.0
230
1.0
 70
     8
 71
     3
 72
    16
 73
    12
 74
     0
 42
0.0000000001
 43
0.0000000001
 40
0.6511213307097927
 40
0.6511213307097927
 40
0.6511213307097927
 40
0.6511213307097927
 40
0.6875000000000002
 40
0.6875000000000002
 40
0.7500000000000002
 40
0.7500000000000002
 40
0.8125000000000001
 40
0.8125000000000001
 40
0.8750000000000001
 40
0.8750000000000001
 40
1.0
 40
1.0
 40
1.0
 40
1.0
 10
195.0943599591528
 20
476.5106001533303
 30
0.0
 10
194.3011440207609
 20
476.295207665896
 30
0.0
 10
193.538413724816
 20
476.0557476136133
 30
0.0
 10
191.5835503882608
 20
475.3493762499961
 30
0.0
 10
190.458905216721
 20
474.8394247395421
 30
0.0
 10
188.4374713055343
 20
473.691490909047
 30
0.0
 10
187.5671594505056
 20
473.0690672206113
 30
0.0
 10
186.0788723448728
 20
471.7241583552595
 30
0.0
 10
185.4588078150664
 20
470.9951778942987
 30
0.0
 10
184.0131748877545
 20
468.7149136989431
 30
0.0
 10
183.5710495258144
 20
467.0393402427508
 30
0.0
 10
183.6022161455084
 20
465.25662526791
 30
0.0
  0
ARC
  5
3C
330
2
100
AcDbEntity
  8
OUTLINE
  6
CONTINUOUS
 48
25.4
100
AcDbCircle
 10
1004.076477636998
 20
457.1672461580281
 30
0.0
 40
775.7208737963845
100
AcDbArc
 50
179.4024968277993
 51
181.6327752166994
  0
LINE
  5
3D
330
2
100
AcDbEntity
  8
OUTLINE
  6
CONTINUOUS
 48
25.4
100
AcDbLine
 10
183.2627102129982
 20
464.8805790875281
 30
0.0
 11
181.0332880599983
 21
400.9993669350279
 31
0.0
  0
SPLINE
  5
3E
330
2
100
AcDbEntity
  8
OUTLINE
  6
CONTINUOUS
 48
25.4
100
AcDbSpline
210
0.0
220
0.0
230
1.0
 70
     8
 71
     3
 72
     8
 73
     4
 74
     0
 42
0.0000000001
 43
0.0000000001
 40
0.0
 40
0.0
 40
0.0
 40
0.0
 40
0.0352032673976564
 40
0.0352032673976564
 40
0.0352032673976564
 40
0.0352032673976564
 10
183.2627102129629
 20
464.8805790876171
 30
0.0
 10
183.2533793873516
 20
465.3797574635425
 30
0.0
 10
183.2813281789343
 20
465.8676124870801
 30
0.0
 10
183.3480179005471
 20
466.3446673621034
 30
0.0
  0
SPLINE
  5
3F
330
2
100
AcDbEntity
  8
OUTLINE
  6
CONTINUOUS
 48
25.4
100
AcDbSpline
210
0.0
220
0.0
230
1.0
 70
     8
 71
     3
 72
     8
 73
     4
 74
     0
 42
0.0000000001
 43
0.0000000001
 40
0.9644223550025563
 40
0.9644223550025563
 40
0.9644223550025563
 40
0.9644223550025563
 40
1.0
 40
1.0
 40
1.0
 40
1.0
 10
228.647196258042
 20
466.368801632577
 30
0.0
 10
228.7171374094421
 20
465.8825245553783
 30
0.0
 10
228.7467411721685
 20
465.3862071523677
 30
0.0
 10
228.7372897866038
 20
464.8805790876103
 30
0.0
  0
ARC
  5
40
330
2
100
AcDbEntity
  8
OUTLINE
  6
CONTINUOUS
 48
25.4
100
AcDbCircle
 10
-872.9538461010013
 20
460.7483750605279
 30
0.0
 40
1056.595142617485
100
AcDbArc
 50
356.7430597670004
 51
358.6070905309993
  0
ARC
  5
41
330
2
100
AcDbEntity
  8
OUTLINE
  6
CONTINUOUS
 48
25.4
100
AcDbCircle
 10
205.9999999999983
 20
-28598.45230369547
 30
0.0
 40
28999.18156124595
100
AcDbArc
 50
89.95245240170001
 51
90.04754759829998
  0
ARC
  5
42
330
2
100
AcDbEntity
  8
OUTLINE
  6
CONTINUOUS
 48
25.4
100
AcDbCircle
 10
1284.759492561498
 20
460.738734576028
 30
0.0
 40
1056.400555288383
100
AcDbArc
 50
181.3926440432998
 51
183.2570170883993
  0
ARC
  5
43
330
2
100
AcDbEntity
  8
OUTLINE
  6
CONTINUOUS
 48
25.4
100
AcDbCircle
 10
-625.0363022240016
 20
457.249190983028
 30
0.0
 40
808.3350367212279
100
AcDbArc
 50
358.4188760089996
 51
0.540930190999625
  0
LINE
  5
44
330
2
100
AcDbEntity
  8
OUTLINE
  6
CONTINUOUS
 48
25.4
100
AcDbLine
 10
228.6709773314983
 20
435.0642046110278
 30
0.0
 11
228.6705625529982
 21
435.0642849100281
 31
0.0
  0
LINE
  5
45
330
2
100
AcDbEntity
  8
OUTLINE
  6
CONTINUOUS
 48
25.4
100
AcDbLine
 10
228.6709786824983
 20
435.0641544215281
 30
0.0
 11
228.6709773314983
 21
435.0642046110278
 31
0.0
  0
LINE
  5
46
330
2
100
AcDbEntity
  8
OUTLINE
  6
CONTINUOUS
 48
25.4
100
AcDbLine
 10
183.3293807289983
 20
435.0642671250281
 30
0.0
 11
183.3290796399981
 21
435.0642088430281
 31
0.0
  0
LINE
  5
47
330
2
100
AcDbEntity
  8
OUTLINE
  6
CONTINUOUS
 48
25.4
100
AcDbLine
 10
183.3290796399981
 20
435.0642088430281
 30
0.0
 11
183.3290786579981
 21
435.0641724025278
 31
0.0
  0
SPLINE
  5
48
330
2
100
AcDbEntity
  8
OUTLINE
  6
CONTINUOUS
 48
25.4
100
AcDbSpline
210
0.0
220
0.0
230
1.0
 70
     8
 71
     3
 72
    10
 73
     6
 74
     0
 42
0.0000000001
 43
0.0000000001
 40
0.0
 40
0.0
 40
0.0
 40
0.0
 40
0.5
 40
0.5
 40
1.0
 40
1.0
 40
1.0
 40
1.0
 10
182.9909686396961
 20
434.945354282888
 30
0.0
 10
182.9952883422917
 20
434.9732201402832
 30
0.0
 10
183.0303131399311
 20
434.9999399660375
 30
0.0
 10
183.1500875487469
 20
435.0420603056301
 30
0.0
 10
183.233549501306
 20
435.05725880925
 30
0.0
 10
183.3290796402469
 20
435.0642088428022
 30
0.0
  0
ELLIPSE
  5
49
330
2
100
AcDbEntity
  8
OUTLINE
  6
CONTINUOUS
 48
25.4
100
AcDbEllipse
 10
183.7621012254983
 20
464.863129339028
 30
0.0
 11
-0.4999233211985464
 21
-0.0087563075580888
 31
0.0
210
0.0
220
0.0
230
1.0
 40
0.8323829677999999
 41
5.023313372219695
 42
6.220209400286598
  0
ELLIPSE
  5
4A
330
2
100
AcDbEntity
  8
OUTLINE
  6
CONTINUOUS
 48
25.4
100
AcDbEllipse
 10
228.2378987739981
 20
464.863129339028
 30
0.0
 11
0.4999233211983105
 21
-0.0087563075582275
 31
0.0
210
0.0
220
0.0
230
0.9999999999999998
 40
0.8323829678000004
 41
0.0629759068926699
 42
1.259871934960047
  0
SPLINE
  5
4B
330
2
100
AcDbEntity
  8
OUTLINE
  6
CONTINUOUS
 48
25.4
100
AcDbSpline
210
0.0
220
0.0
230
1.0
 70
     8
 71
     3
 72
    10
 73
     6
 74
     0
 42
0.0000000001
 43
0.0000000001
 40
0.0
 40
0.0
 40
0.0
 40
0.0
 40
0.5
 40
0.5
 40
1.0
 40
1.0
 40
1.0
 40
1.0
 10
228.6709773312775
 20
435.0642046108996
 30
0.0
 10
228.7664293723124
 20
435.0572564958644
 30
0.0
 10
228.8498304909647
 20
435.0420724364778
 30
0.0
 10
228.9695618572368
 20
434.999998761511
 30
0.0
 10
229.0047193384014
 20
434.9731691968225
 30
0.0
 10
229.0090314306034
 20
434.9453520719674
 30
0.0
  0
ELLIPSE
  5
4C
330
2
100
AcDbEntity
  8
OUTLINE
  6
CONTINUOUS
 48
25.4
100
AcDbEllipse
 10
229.8953553674981
 20
400.9819171865281
 30
0.0
 11
0.4991214060739161
 21
0.0296280610030595
 31
0.0
210
0.0
220
0.0
230
1.0
 40
0.5723733016
 41
5.025695179866818
 42
6.240637681670877
  0
LINE
  5
4D
330
2
100
AcDbEntity
  8
OUTLINE
  6
CONTINUOUS
 48
25.4
100
AcDbLine
 10
229.8953553674983
 20
400.4819171865281
 30
0.0
 11
182.1046446319981
 21
400.4819171865281
 31
0.0
  0
ELLIPSE
  5
4E
330
2
100
AcDbEntity
  8
OUTLINE
  6
CONTINUOUS
 48
25.4
100
AcDbEllipse
 10
182.1046446319983
 20
400.9819171865281
 30
0.0
 11
0.0000000000000104
 21
0.5000000000000031
 31
0.0
210
0.0
220
0.0
230
1.0
 40
0.3994832436
 41
2.123852411692498
 42
3.141592653589792
  0
ELLIPSE
  5
4F
330
2
100
AcDbEntity
  8
OUTLINE
  6
CONTINUOUS
 48
25.4
100
AcDbEllipse
 10
229.8953553674981
 20
400.9819171865281
 30
0.0
 11
-0.0000000000000069
 21
-0.5000000000000206
 31
0.0
210
0.0
220
0.0
230
1.0
 40
0.3994832435999999
 41
0.0000000000000347
 42
1.017740241897665
  0
ARC
  5
50
330
2
100
AcDbEntity
  8
OUTLINE
  6
CONTINUOUS
 48
25.4
100
AcDbCircle
 10
-859.8906873145015
 20
460.515729791528
 30
0.0
 40
1043.195088384335
100
AcDbArc
 50
356.7293854605003
 51
358.5954483868996
  0
ELLIPSE
  5
51
330
2
100
AcDbEntity
  8
OUTLINE
  6
CONTINUOUS
 48
25.4
100
AcDbEllipse
 10
182.1046446319983
 20
400.9819171865281
 30
0.0
 11
-0.4991214060739023
 21
0.0296280610030742
 31
0.0
210
0.0
220
0.0
230
1.0
 40
0.5723733016
 41
0.0425476255109756
 42
1.25749012731296
  0
LINE
  5
52
330
2
100
AcDbEntity
  8
OUTLINE
  6
CONTINUOUS
 48
25.4
100
AcDbLine
 10
181.5177651564982
 20
400.4819171865281
 30
0.0
 11
181.5326790724983
 21
400.4819171865281
 31
0.0
  0
LINE
  5
53
330
2
100
AcDbEntity
  8
OUTLINE
  6
CONTINUOUS
 48
25.4
100
AcDbLine
 10
230.4673209269983
 20
400.4819171865281
 30
0.0
 11
230.4822348429983
 21
400.4819171865281
 31
0.0
  0
LINE
  5
54
330
2
100
AcDbEntity
  8
OUTLINE
  6
CONTINUOUS
 48
25.4
100
AcDbLine
 10
182.1046446319981
 20
400.4819171865281
 30
0.0
 11
181.5326790724983
 21
400.4819171865281
 31
0.0
  0
LINE
  5
55
330
2
100
AcDbEntity
  8
OUTLINE
  6
CONTINUOUS
 48
25.4
100
AcDbLine
 10
230.4673209269983
 20
400.4819171865281
 30
0.0
 11
229.8953553674983
 21
400.4819171865281
 31
0.0
  0
LINE
  5
56
330
2
100
AcDbEntity
  8
OUTLINE
  6
CONTINUOUS
 48
25.4
100
AcDbLine
 10
230.3947463799983
 20
400.9993669350279
 30
0.0
 11
230.9667119394983
 21
400.9993669350279
 31
0.0
  0
LINE
  5
57
330
2
100
AcDbEntity
  8
OUTLINE
  6
CONTINUOUS
 48
25.4
100
AcDbLine
 10
181.0332880599983
 20
400.9993669350279
 30
0.0
 11
181.6052536194981
 21
400.9993669350279
 31
0.0
  0
LINE
  5
58
330
2
100
AcDbEntity
  8
OUTLINE
  6
CONTINUOUS
 48
25.4
100
AcDbLine
 10
230.9819302564982
 20
400.9993669350279
 30
0.0
 11
230.9667119394983
 21
400.9993669350279
 31
0.0
  0
LINE
  5
59
330
2
100
AcDbEntity
  8
OUTLINE
  6
CONTINUOUS
 48
25.4
100
AcDbLine
 10
181.0332880599983
 20
400.9993669350279
 30
0.0
 11
181.0180697429981
 21
400.9993669350279
 31
0.0
  0
ELLIPSE
  5
5A
330
2
100
AcDbEntity
  8
OUTLINE
  6
CONTINUOUS
 48
25.4
100
AcDbEllipse
 10
182.1046446319983
 20
400.9819171865281
 30
0.0
 11
-0.0000000000009333
 21
-0.5000000000000661
 31
0.0
210
0.0
220
0.0
230
1.0
 40
0.9993908269999998
 41
4.67748239534678
 42
6.283185307179584
  0
ELLIPSE
  5
5B
330
2
100
AcDbEntity
  8
OUTLINE
  6
CONTINUOUS
 48
25.4
100
AcDbEllipse
 10
181.5326790724983
 20
400.9819171865281
 30
0.0
 11
0.0000000000008223
 21
-0.5
 31
0.0
210
0.0
220
0.0
230
1.0
 40
0.999390827
 41
4.677482395343266
 42
6.283185307179584
  0
ELLIPSE
  5
5C
330
2
100
AcDbEntity
  8
OUTLINE
  6
CONTINUOUS
 48
25.4
100
AcDbEllipse
 10
230.4673209269983
 20
400.9819171865281
 30
0.0
 11
-0.0000000000025327
 21
-0.500000000000031
 31
0.0
210
0.0
220
0.0
230
1.0
 40
0.9993908269999998
 41
0.0000000000050685
 42
1.605702911839735
  0
ELLIPSE
  5
5D
330
2
100
AcDbEntity
  8
OUTLINE
  6
CONTINUOUS
 48
25.4
100
AcDbEllipse
 10
229.8953553674981
 20
400.9819171865281
 30
0.0
 11
0.0000000000029664
 21
-0.5000000000000525
 31
0.0
210
0.0
220
0.0
230
1.0
 40
0.999390827
 41
0.0
 42
1.605702911829028
  0
SPLINE
  5
5E
330
2
100
AcDbEntity
  8
OUTLINE
  6
CONTINUOUS
 48
25.4
100
AcDbSpline
210
0.0
220
0.0
230
1.0
 70
     8
 71
     3
 72
    20
 73
    16
 74
     0
 42
0.0000000001
 43
0.0000000001
 40
0.0
 40
0.0
 40
0.0
 40
0.0
 40
0.03125
 40
0.03125
 40
0.0625
 40
0.0625
 40
0.125
 40
0.125
 40
0.1875
 40
0.1875
 40
0.2499999999999999
 40
0.2499999999999999
 40
0.3124999999999999
 40
0.3124999999999999
 40
0.31502957558011
 40
0.31502957558011
 40
0.31502957558011
 40
0.31502957558011
 10
205.9999999997833
 20
467.7061462678137
 30
0.0
 10
205.1873333858011
 20
467.7061462678137
 30
0.0
 10
204.3909187382237
 20
467.7471033667745
 30
0.0
 10
202.8287584046153
 20
467.905590335043
 30
0.0
 10
202.0559365710131
 20
468.0252948592166
 30
0.0
 10
199.8839087529191
 20
468.4792028944325
 30
0.0
 10
198.5833839072874
 20
468.9167304143746
 30
0.0
 10
196.4695967191094
 20
469.9348656630727
 30
0.0
 10
195.6402010012649
 20
470.5203781785384
 30
0.0
 10
194.5213450924658
 20
471.734651975403
 30
0.0
 10
194.2282351965534
 20
472.3633140331046
 30
0.0
 10
194.2038744091296
 20
473.5930953518115
 30
0.0
 10
194.4712301028336
 20
474.1863717673587
 30
0.0
 10
195.0437581865472
 20
474.7578983312463
 30
0.0
 10
195.0664682607463
 20
474.7800362809178
 30
0.0
 10
195.0896170868455
 20
474.8020793831026
 30
0.0
  0
SPLINE
  5
5F
330
2
100
AcDbEntity
  8
OUTLINE
  6
CONTINUOUS
 48
25.4
100
AcDbSpline
210
0.0
220
0.0
230
1.0
 70
     8
 71
     3
 72
    20
 73
    16
 74
     0
 42
0.0000000001
 43
0.0000000001
 40
0.6847532663405235
 40
0.6847532663405235
 40
0.6847532663405235
 40
0.6847532663405235
 40
0.7500000000000002
 40
0.7500000000000002
 40
0.8125000000000003
 40
0.8125000000000003
 40
0.8437500000000003
 40
0.8437500000000003
 40
0.8750000000000003
 40
0.8750000000000003
 40
0.90625
 40
0.90625
 40
0.9375
 40
0.9375
 40
1.0
 40
1.0
 40
1.0
 40
1.0
 10
216.894403930018
 20
474.8085365943572
 30
0.0
 10
217.4939001403811
 20
474.2405562300588
 30
0.0
 10
217.7974702489016
 20
473.6171282106489
 30
0.0
 10
217.7708796416991
 20
472.3608152494215
 30
0.0
 10
217.4755824199645
 20
471.7301870610606
 30
0.0
 10
216.6364585749046
 20
470.8212015977657
 30
0.0
 10
216.2936555323151
 20
470.5265930289208
 30
0.0
 10
215.4780260005114
 20
469.9565524652988
 30
0.0
 10
214.9998489201361
 20
469.6792297790724
 30
0.0
 10
213.9441782094181
 20
469.1709252892501
 30
0.0
 10
213.3640069136542
 20
468.9371317619858
 30
0.0
 10
212.0917288389263
 20
468.5159839507938
 30
0.0
 10
211.3953875974119
 20
468.3288261067851
 30
0.0
 10
209.2322679738964
 20
467.8760774963061
 30
0.0
 10
207.6253332277474
 20
467.7061462678137
 30
0.0
 10
205.9999999997833
 20
467.7061462678137
 30
0.0
  0
SPLINE
  5
60
330
2
100
AcDbEntity
  8
OUTLINE
  6
CONTINUOUS
 48
25.4
100
AcDbSpline
210
0.0
220
0.0
230
1.0
 70
     8
 71
     3
 72
     8
 73
     4
 74
     0
 42
0.0000000001
 43
0.0000000001
 40
0.2518677218828925
 40
0.2518677218828925
 40
0.2518677218828925
 40
0.2518677218828925
 40
0.2883774397604139
 40
0.2883774397604139
 40
0.2883774397604139
 40
0.2883774397604139
 10
217.1999716830203
 20
472.5744154798471
 30
0.0
 10
217.1980146156339
 20
472.9291439115585
 30
0.0
 10
217.1059003659946
 20
473.2762104868883
 30
0.0
 10
216.9226935819862
 20
473.6115633878713
 30
0.0
  0
SPLINE
  5
61
330
2
100
AcDbEntity
  8
OUTLINE
  6
CONTINUOUS
 48
25.4
100
AcDbSpline
210
0.0
220
0.0
230
1.0
 70
     8
 71
     3
 72
     8
 73
     4
 74
     0
 42
0.0000000001
 43
0.0000000001
 40
0.7113882871951958
 40
0.7113882871951958
 40
0.7113882871951958
 40
0.7113882871951958
 40
0.7482146160561866
 40
0.7482146160561866
 40
0.7482146160561866
 40
0.7482146160561866
 10
195.0866592395948
 20
473.6176023129615
 30
0.0
 10
194.8980542197231
 20
473.2782864015296
 30
0.0
 10
194.8014344960063
 20
472.9265175611376
 30
0.0
 10
194.8000319742791
 20
472.5689350715411
 30
0.0
  0
LINE
  5
62
330
2
100
AcDbEntity
  8
OUTLINE
  6
CONTINUOUS
 48
25.4
100
AcDbLine
 10
230.6916199069981
 20
408.8817738040281
 30
0.0
 11
230.9667119394983
 21
400.9993669350279
 31
0.0
  0
ELLIPSE
  5
63
330
2
100
AcDbEntity
  8
OUTLINE
  6
CONTINUOUS
 48
25.4
100
AcDbEllipse
 10
230.0008280019983
 20
423.4993669350281
 30
0.0
 11
-0.5422619125670592
 21
15.49998846113386
 31
0.0
210
0.0
220
0.0
230
1.0
 40
0.0348781332
 41
2.937946695772352
 42
3.479424042591998
  0
ELLIPSE
  5
64
330
2
100
AcDbEntity
  8
OUTLINE
  6
CONTINUOUS
 48
25.4
100
AcDbEllipse
 10
230.0008280019983
 20
423.4993669350281
 30
0.0
 11
-0.5422619125670592
 21
15.49998846113386
 31
0.0
210
0.0
220
0.0
230
1.0
 40
0.0348781332
 41
0.2002641906688925
 42
2.937946695772352
  0
ELLIPSE
  5
65
330
2
100
AcDbEntity
  8
OUTLINE
  6
CONTINUOUS
 48
25.4
100
AcDbEllipse
 10
230.0008280019983
 20
423.4993669350281
 30
0.0
 11
-0.5422619125670592
 21
15.49998846113386
 31
0.0
210
0.0
220
0.0
230
1.0
 40
0.0348781332
 41
5.940476086384647
 42
6.483449497848477
  0
SPLINE
  5
66
330
2
100
AcDbEntity
  8
OUTLINE
  6
CONTINUOUS
 48
25.4
100
AcDbSpline
210
0.0
220
0.0
230
1.0
 70
     8
 71
     3
 72
     8
 73
     4
 74
     0
 42
0.0000000001
 43
0.0000000001
 40
0.0
 40
0.0
 40
0.0
 40
0.0
 40
0.0085914018125339
 40
0.0085914018125339
 40
0.0085914018125339
 40
0.0085914018125339
 10
229.6717666625244
 20
438.1043512271751
 30
0.0
 10
229.6767427901808
 20
438.0675766899146
 30
0.0
 10
229.6810338371921
 20
438.029791933792
 30
0.0
 10
229.6846600300873
 20
437.9909969597081
 30
0.0
  0
SPLINE
  5
67
330
2
100
AcDbEntity
  8
OUTLINE
  6
CONTINUOUS
 48
25.4
100
AcDbSpline
210
0.0
220
0.0
230
1.0
 70
     8
 71
     3
 72
     8
 73
     4
 74
     0
 42
0.0000000001
 43
0.0000000001
 40
0.9931266759573368
 40
0.9931266759573368
 40
0.9931266759573368
 40
0.9931266759573368
 40
1.0
 40
1.0
 40
1.0
 40
1.0
 10
230.6959774884703
 20
408.9716784937896
 30
0.0
 10
230.6950035926571
 20
408.9410135597289
 30
0.0
 10
230.693555153367
 20
408.9110428231078
 30
0.0
 10
230.6916199069362
 20
408.8817738041954
 30
0.0
  0
ELLIPSE
  5
68
330
2
100
AcDbEntity
  8
OUTLINE
  6
CONTINUOUS
 48
25.4
100
AcDbEllipse
 10
230.1922288944981
 20
408.8643240560278
 30
0.0
 11
0.4989767113158412
 21
-0.0319725126387283
 31
0.0
210
0.0
220
0.0
230
1.0
 40
0.9428564402000001
 41
0.104868930373377
 42
0.3198916373210115
  0
ELLIPSE
  5
69
330
2
100
AcDbEntity
  8
OUTLINE
  6
CONTINUOUS
 48
25.4
100
AcDbEllipse
 10
229.1723756499983
 20
438.086901479028
 30
0.0
 11
-0.4956228572483188
 21
-0.0660150238431454
 31
0.0
210
0.0
220
0.0
230
1.0
 40
0.9413210410999999
 41
2.776332962786191
 42
3.038068746054248
  0
ARC
  5
6A
330
2
100
AcDbEntity
  8
OUTLINE
  6
CONTINUOUS
 48
25.4
100
AcDbCircle
 10
206.0033596404982
 20
456.2088283290278
 30
0.0
 40
1.435288727363581
100
AcDbArc
 50
58.44220387749992
 51
121.8007381343999
  0
SPLINE
  5
6B
330
2
100
AcDbEntity
  8
OUTLINE
  6
CONTINUOUS
 48
25.4
100
AcDbSpline
210
0.0
220
0.0
230
1.0
 70
     8
 71
     3
 72
    14
 73
    10
 74
     0
 42
0.0000000001
 43
0.0000000001
 40
0.0
 40
0.0
 40
0.0
 40
0.0
 40
0.2499999999999999
 40
0.2499999999999999
 40
0.5
 40
0.5
 40
0.75
 40
0.75
 40
1.0
 40
1.0
 40
1.0
 40
1.0
 10
206.7588277916471
 20
456.3823759778956
 30
0.0
 10
206.859384437355
 20
456.446879305886
 30
0.0
 10
206.9395764559918
 20
456.5276334804964
 30
0.0
 10
207.04863155879
 20
456.7080159559958
 30
0.0
 10
207.0771338818444
 20
456.8080837473488
 30
0.0
 10
207.076429782059
 20
457.0066771366169
 30
0.0
 10
207.0475090690869
 20
457.1062436838977
 30
0.0
 10
206.9363556028997
 20
457.2874802176685
 30
0.0
 10
206.8556027077976
 20
457.3676520384081
 30
0.0
 10
206.7545300306235
 20
457.4318560379095
 30
0.0
  0
ARC
  5
6C
330
2
100
AcDbEntity
  8
OUTLINE
  6
CONTINUOUS
 48
25.4
100
AcDbCircle
 10
206.0029560614982
 20
457.627375674028
 30
0.0
 40
1.456491097027972
100
AcDbArc
 50
238.7335614652998
 51
301.2630274971002
  0
SPLINE
  5
6D
330
2
100
AcDbEntity
  8
OUTLINE
  6
CONTINUOUS
 48
25.4
100
AcDbSpline
210
0.0
220
0.0
230
1.0
 70
     8
 71
     3
 72
    14
 73
    10
 74
     0
 42
0.0000000001
 43
0.0000000001
 40
0.0
 40
0.0
 40
0.0
 40
0.0
 40
0.25
 40
0.25
 40
0.5
 40
0.5
 40
0.75
 40
0.75
 40
1.0
 40
1.0
 40
1.0
 40
1.0
 10
205.2470102126018
 20
457.428659987088
 30
0.0
 10
205.1480460679568
 20
457.3636528170983
 30
0.0
 10
205.0692237891763
 20
457.283054218419
 30
0.0
 10
204.9617394379273
 20
457.1034652377831
 30
0.0
 10
204.933514300552
 20
457.0041335849301
 30
0.0
 10
204.9334421842122
 20
456.8070157385371
 30
0.0
 10
204.9614338022729
 20
456.7079109376371
 30
0.0
 10
205.0692329816859
 20
456.5276894564906
 30
0.0
 10
205.1480363280554
 20
456.4472798036028
 30
0.0
 10
205.2470102126018
 20
456.382420980047
 30
0.0
  0
ARC
  5
6E
330
2
100
AcDbEntity
  8
OUTLINE
  6
CONTINUOUS
 48
25.4
100
AcDbCircle
 10
205.8481205784981
 20
456.9091064930281
 30
0.0
 40
0.4438955257793941
100
AcDbArc
 50
134.2579921592995
 51
226.9980962312998
  0
ARC
  5
6F
330
2
100
AcDbEntity
  8
OUTLINE
  6
CONTINUOUS
 48
25.4
100
AcDbCircle
 10
205.7881313409982
 20
456.8258636260281
 30
0.0
 40
0.3423466010178765
100
AcDbArc
 50
224.8383601593996
 51
246.6706451644998
  0
ARC
  5
70
330
2
100
AcDbEntity
  8
OUTLINE
  6
CONTINUOUS
 48
25.4
100
AcDbCircle
 10
206.0029308794983
 20
457.328314865528
 30
0.0
 40
0.8887849992349449
100
AcDbArc
 50
246.7828425244999
 51
292.2923123238998
  0
ARC
  5
71
330
2
100
AcDbEntity
  8
OUTLINE
  6
CONTINUOUS
 48
25.4
100
AcDbCircle
 10
206.2125955264983
 20
456.8196763820281
 30
0.0
 40
0.3386309586359875
100
AcDbArc
 50
292.1143863397997
 51
318.1904332033003
  0
ARC
  5
72
330
2
100
AcDbEntity
  8
OUTLINE
  6
CONTINUOUS
 48
25.4
100
AcDbCircle
 10
206.1288658744983
 20
456.909509170528
 30
0.0
 40
0.4610623180687385
100
AcDbArc
 50
316.8060362159
 51
41.91407223170048
  0
ARC
  5
73
330
2
100
AcDbEntity
  8
OUTLINE
  6
CONTINUOUS
 48
25.4
100
AcDbCircle
 10
206.2191565714983
 20
456.998792881028
 30
0.0
 40
0.334285944902759
100
AcDbArc
 50
40.86425871520025
 51
66.48240246469993
  0
ARC
  5
74
330
2
100
AcDbEntity
  8
OUTLINE
  6
CONTINUOUS
 48
25.4
100
AcDbCircle
 10
206.0029115909983
 20
456.5047396580282
 30
0.0
 40
0.8735910352888033
100
AcDbArc
 50
66.40758556900002
 51
114.5349282212997
  0
LINE
  5
75
330
2
100
AcDbEntity
  8
OUTLINE
  6
CONTINUOUS
 48
25.4
100
AcDbLine
 10
205.6401547574983
 20
457.2994526735279
 30
0.0
 11
205.5383301659983
 21
457.227026511528
 31
0.0
  0
LINE
  5
76
330
2
100
AcDbEntity
  8
OUTLINE
  6
CONTINUOUS
 48
25.4
100
AcDbLine
 10
205.2470102124981
 20
457.4286599870279
 30
0.0
 11
205.2470102124981
 21
457.0066854555281
 31
0.0
  0
ELLIPSE
  5
77
330
2
100
AcDbEntity
  8
OUTLINE
  6
CONTINUOUS
 48
25.4
100
AcDbEllipse
 10
205.8243747389981
 20
456.5269215370277
 30
0.0
 11
0.8908965322705942
 21
0.0000000000000278
 31
0.0
210
0.0
220
0.0
230
0.9999999999999998
 40
0.7071067812000002
 41
2.275845604524704
 42
2.85479368085997
  0
ELLIPSE
  5
78
330
2
100
AcDbEntity
  8
OUTLINE
  6
CONTINUOUS
 48
25.4
100
AcDbEllipse
 10
206.1932034839982
 20
456.5271500995279
 30
0.0
 11
-0.8835816493570208
 21
0.0000000000000139
 31
0.0
210
0.0
220
0.0
230
1.0
 40
0.7071067812000003
 41
3.449830753505817
 42
4.024010923077768
  0
LINE
  5
79
330
2
100
AcDbEntity
  8
OUTLINE
  6
CONTINUOUS
 48
25.4
100
AcDbLine
 10
206.4649990884983
 20
456.5939257055281
 30
0.0
 11
206.4649990884983
 21
456.2378925970281
 31
0.0
  0
LINE
  5
7A
330
2
100
AcDbEntity
  8
OUTLINE
  6
CONTINUOUS
 48
25.4
100
AcDbLine
 10
206.3400754849983
 20
456.5059571025279
 30
0.0
 11
206.3400754849983
 21
456.2130975040278
 31
0.0
  0
LINE
  5
7B
330
2
100
AcDbEntity
  8
OUTLINE
  6
CONTINUOUS
 48
25.4
100
AcDbLine
 10
205.6525566069983
 20
456.5115060480279
 30
0.0
 11
205.6525566069983
 21
456.2199824940277
 31
0.0
  0
LINE
  5
7C
330
2
100
AcDbEntity
  8
OUTLINE
  6
CONTINUOUS
 48
25.4
100
AcDbLine
 10
205.5453737709983
 20
456.5844719165278
 30
0.0
 11
205.5453737709983
 21
456.229233284028
 31
0.0
  0
LINE
  5
7D
330
2
100
AcDbEntity
  8
OUTLINE
  6
CONTINUOUS
 48
25.4
100
AcDbLine
 10
206.7545300304983
 20
457.4318560380278
 30
0.0
 11
206.7545300304983
 21
457.0096586690278
 31
0.0
  0
ELLIPSE
  5
7E
330
2
100
AcDbEntity
  8
OUTLINE
  6
CONTINUOUS
 48
25.4
100
AcDbEllipse
 10
206.0032547359983
 20
456.3782803165278
 30
0.0
 11
1.166915513877262
 21
0.0
 31
0.0
210
0.0
220
0.0
230
1.0
 40
0.7071067812000002
 41
0.871325413896265
 42
1.079879126189603
  0
ELLIPSE
  5
7F
330
2
100
AcDbEntity
  8
OUTLINE
  6
CONTINUOUS
 48
25.4
100
AcDbEllipse
 10
206.0032547359983
 20
456.3782803165278
 30
0.0
 11
1.166915513877262
 21
0.0
 31
0.0
210
0.0
220
0.0
230
1.0
 40
0.7071067812000002
 41
2.056250223076578
 42
2.275845604524673
  0
ELLIPSE
  5
80
330
2
100
AcDbEntity
  8
OUTLINE
  6
CONTINUOUS
 48
25.4
100
AcDbEllipse
 10
206.1039491049983
 20
456.5272404475281
 30
0.0
 11
0.6997306216868759
 21
0.0000000000000208
 31
0.0
210
0.0
220
0.0
230
0.9999999999999998
 40
0.7071067812000002
 41
3.141592653589792
 42
3.705602804066605
  0
ELLIPSE
  5
81
330
2
100
AcDbEntity
  8
OUTLINE
  6
CONTINUOUS
 48
25.4
100
AcDbEllipse
 10
205.8558238764983
 20
456.5275708230281
 30
0.0
 11
-0.7341126537351871
 21
-0.0000000000000139
 31
0.0
210
0.0
220
0.0
230
1.0
 40
0.7071067812000001
 41
2.549566358153433
 42
3.141592653589767
  0
LINE
  5
82
330
2
100
AcDbEntity
  8
OUTLINE
  6
CONTINUOUS
 48
25.4
100
AcDbLine
 10
202.6890203819981
 20
456.2656506145279
 30
0.0
 11
202.7734005024983
 21
456.301962639528
 31
0.0
  0
LINE
  5
83
330
2
100
AcDbEntity
  8
OUTLINE
  6
CONTINUOUS
 48
25.4
100
AcDbLine
 10
202.6019357469983
 20
456.2326692500279
 30
0.0
 11
202.6890203819981
 21
456.2656506145279
 31
0.0
  0
LINE
  5
84
330
2
100
AcDbEntity
  8
OUTLINE
  6
CONTINUOUS
 48
25.4
100
AcDbLine
 10
202.5125129484983
 20
456.203218908028
 30
0.0
 11
202.6019357469983
 21
456.2326692500279
 31
0.0
  0
LINE
  5
85
330
2
100
AcDbEntity
  8
OUTLINE
  6
CONTINUOUS
 48
25.4
100
AcDbLine
 10
202.4211457409982
 20
456.177470156528
 30
0.0
 11
202.5125129484983
 21
456.203218908028
 31
0.0
  0
LINE
  5
86
330
2
100
AcDbEntity
  8
OUTLINE
  6
CONTINUOUS
 48
25.4
100
AcDbLine
 10
202.3282496039982
 20
456.1555606480281
 30
0.0
 11
202.4211457409982
 21
456.177470156528
 31
0.0
  0
LINE
  5
87
330
2
100
AcDbEntity
  8
OUTLINE
  6
CONTINUOUS
 48
25.4
100
AcDbLine
 10
202.2342554884983
 20
456.1375927255277
 30
0.0
 11
202.3282496039982
 21
456.1555606480281
 31
0.0
  0
LINE
  5
88
330
2
100
AcDbEntity
  8
OUTLINE
  6
CONTINUOUS
 48
25.4
100
AcDbLine
 10
202.1396031734981
 20
456.1236318310279
 30
0.0
 11
202.2342554884983
 21
456.1375927255277
 31
0.0
  0
LINE
  5
89
330
2
100
AcDbEntity
  8
OUTLINE
  6
CONTINUOUS
 48
25.4
100
AcDbLine
 10
202.0447344479983
 20
456.1137057780277
 30
0.0
 11
202.1396031734981
 21
456.1236318310279
 31
0.0
  0
LINE
  5
8A
330
2
100
AcDbEntity
  8
OUTLINE
  6
CONTINUOUS
 48
25.4
100
AcDbLine
 10
201.9500863429982
 20
456.1078048960279
 30
0.0
 11
202.0447344479983
 21
456.1137057780277
 31
0.0
  0
LINE
  5
8B
330
2
100
AcDbEntity
  8
OUTLINE
  6
CONTINUOUS
 48
25.4
100
AcDbLine
 10
201.8639141629983
 20
456.1045386075278
 30
0.0
 11
201.9500863429982
 21
456.1078048960279
 31
0.0
  0
LINE
  5
8C
330
2
100
AcDbEntity
  8
OUTLINE
  6
CONTINUOUS
 48
25.4
100
AcDbLine
 10
201.7828937969983
 20
456.1052302130279
 30
0.0
 11
201.8639141629983
 21
456.1045386075278
 31
0.0
  0
LINE
  5
8D
330
2
100
AcDbEntity
  8
OUTLINE
  6
CONTINUOUS
 48
25.4
100
AcDbLine
 10
201.7069783639982
 20
456.1094656925278
 30
0.0
 11
201.7828937969983
 21
456.1052302130279
 31
0.0
  0
LINE
  5
8E
330
2
100
AcDbEntity
  8
OUTLINE
  6
CONTINUOUS
 48
25.4
100
AcDbLine
 10
201.6361209829983
 20
456.1168295720277
 30
0.0
 11
201.7069783639982
 21
456.1094656925278
 31
0.0
  0
LINE
  5
8F
330
2
100
AcDbEntity
  8
OUTLINE
  6
CONTINUOUS
 48
25.4
100
AcDbLine
 10
201.5702747729983
 20
456.1269052145282
 30
0.0
 11
201.6361209829983
 21
456.1168295720277
 31
0.0
  0
LINE
  5
90
330
2
100
AcDbEntity
  8
OUTLINE
  6
CONTINUOUS
 48
25.4
100
AcDbLine
 10
201.5093928529982
 20
456.1392750725281
 30
0.0
 11
201.5702747729983
 21
456.1269052145282
 31
0.0
  0
LINE
  5
91
330
2
100
AcDbEntity
  8
OUTLINE
  6
CONTINUOUS
 48
25.4
100
AcDbLine
 10
201.4534283409981
 20
456.1535209075278
 30
0.0
 11
201.5093928529982
 21
456.1392750725281
 31
0.0
  0
LINE
  5
92
330
2
100
AcDbEntity
  8
OUTLINE
  6
CONTINUOUS
 48
25.4
100
AcDbLine
 10
201.4023343569983
 20
456.1692239720279
 30
0.0
 11
201.4534283409981
 21
456.1535209075278
 31
0.0
  0
LINE
  5
93
330
2
100
AcDbEntity
  8
OUTLINE
  6
CONTINUOUS
 48
25.4
100
AcDbLine
 10
201.3560640194981
 20
456.185965158528
 30
0.0
 11
201.4023343569983
 21
456.1692239720279
 31
0.0
  0
LINE
  5
94
330
2
100
AcDbEntity
  8
OUTLINE
  6
CONTINUOUS
 48
25.4
100
AcDbLine
 10
201.3171555129983
 20
456.2022229815278
 30
0.0
 11
201.3560640194981
 21
456.185965158528
 31
0.0
  0
LINE
  5
95
330
2
100
AcDbEntity
  8
OUTLINE
  6
CONTINUOUS
 48
25.4
100
AcDbLine
 10
201.2818933279983
 20
456.2191924555281
 30
0.0
 11
201.3171555129983
 21
456.2022229815278
 31
0.0
  0
LINE
  5
96
330
2
100
AcDbEntity
  8
OUTLINE
  6
CONTINUOUS
 48
25.4
100
AcDbLine
 10
201.2497727009983
 20
456.237046166028
 30
0.0
 11
201.2818933279983
 21
456.2191924555281
 31
0.0
  0
LINE
  5
97
330
2
100
AcDbEntity
  8
OUTLINE
  6
CONTINUOUS
 48
25.4
100
AcDbLine
 10
201.2202888694983
 20
456.2559553760281
 30
0.0
 11
201.2497727009983
 21
456.237046166028
 31
0.0
  0
LINE
  5
98
330
2
100
AcDbEntity
  8
OUTLINE
  6
CONTINUOUS
 48
25.4
100
AcDbLine
 10
201.1929370699983
 20
456.2760901415278
 30
0.0
 11
201.2202888694983
 21
456.2559553760281
 31
0.0
  0
LINE
  5
99
330
2
100
AcDbEntity
  8
OUTLINE
  6
CONTINUOUS
 48
25.4
100
AcDbLine
 10
201.1672125389982
 20
456.2976193985279
 30
0.0
 11
201.1929370699983
 21
456.2760901415278
 31
0.0
  0
LINE
  5
9A
330
2
100
AcDbEntity
  8
OUTLINE
  6
CONTINUOUS
 48
25.4
100
AcDbLine
 10
201.1305727019983
 20
456.3328948695279
 30
0.0
 11
201.1672125389982
 21
456.2976193985279
 31
0.0
  0
LINE
  5
9B
330
2
100
AcDbEntity
  8
OUTLINE
  6
CONTINUOUS
 48
25.4
100
AcDbLine
 10
201.0947549264983
 20
456.372247469028
 30
0.0
 11
201.1305727019983
 21
456.3328948695279
 31
0.0
  0
LINE
  5
9C
330
2
100
AcDbEntity
  8
OUTLINE
  6
CONTINUOUS
 48
25.4
100
AcDbLine
 10
201.0700127959982
 20
456.401913909528
 30
0.0
 11
201.0947549264983
 21
456.372247469028
 31
0.0
  0
LINE
  5
9D
330
2
100
AcDbEntity
  8
OUTLINE
  6
CONTINUOUS
 48
25.4
100
AcDbLine
 10
201.0455541244982
 20
456.4342835620278
 30
0.0
 11
201.0700127959982
 21
456.401913909528
 31
0.0
  0
LINE
  5
9E
330
2
100
AcDbEntity
  8
OUTLINE
  6
CONTINUOUS
 48
25.4
100
AcDbLine
 10
201.0220762934983
 20
456.4698826665277
 30
0.0
 11
201.0455541244982
 21
456.4342835620278
 31
0.0
  0
LINE
  5
9F
330
2
100
AcDbEntity
  8
OUTLINE
  6
CONTINUOUS
 48
25.4
100
AcDbLine
 10
201.0002766864983
 20
456.5092361045279
 30
0.0
 11
201.0220762934983
 21
456.4698826665277
 31
0.0
  0
LINE
  5
A0
330
2
100
AcDbEntity
  8
OUTLINE
  6
CONTINUOUS
 48
25.4
100
AcDbLine
 10
200.9808526844983
 20
456.5528669585281
 30
0.0
 11
201.0002766864983
 21
456.5092361045279
 31
0.0
  0
LINE
  5
A1
330
2
100
AcDbEntity
  8
OUTLINE
  6
CONTINUOUS
 48
25.4
100
AcDbLine
 10
200.9645016709983
 20
456.6012959785282
 30
0.0
 11
200.9808526844983
 21
456.5528669585281
 31
0.0
  0
LINE
  5
A2
330
2
100
AcDbEntity
  8
OUTLINE
  6
CONTINUOUS
 48
25.4
100
AcDbLine
 10
200.9519210274983
 20
456.6550409460281
 30
0.0
 11
200.9645016709983
 21
456.6012959785282
 31
0.0
  0
LINE
  5
A3
330
2
100
AcDbEntity
  8
OUTLINE
  6
CONTINUOUS
 48
25.4
100
AcDbLine
 10
200.9438081369983
 20
456.7146159425282
 30
0.0
 11
200.9519210274983
 21
456.6550409460281
 31
0.0
  0
ARC
  5
A4
330
2
100
AcDbEntity
  8
OUTLINE
  6
CONTINUOUS
 48
25.4
100
AcDbCircle
 10
201.6735925954983
 20
456.7807108435281
 30
0.0
 40
0.732771377427932
100
AcDbArc
 50
174.8249715371999
 51
185.1750284627999
  0
LINE
  5
A5
330
2
100
AcDbEntity
  8
OUTLINE
  6
CONTINUOUS
 48
25.4
100
AcDbLine
 10
200.9519210274983
 20
456.9069856085278
 30
0.0
 11
200.9438081369983
 21
456.8468057445281
 31
0.0
  0
LINE
  5
A6
330
2
100
AcDbEntity
  8
OUTLINE
  6
CONTINUOUS
 48
25.4
100
AcDbLine
 10
200.9645016709983
 20
456.9616906250281
 30
0.0
 11
200.9519210274983
 21
456.9069856085278
 31
0.0
  0
LINE
  5
A7
330
2
100
AcDbEntity
  8
OUTLINE
  6
CONTINUOUS
 48
25.4
100
AcDbLine
 10
200.9808526844983
 20
457.0113924560279
 30
0.0
 11
200.9645016709983
 21
456.9616906250281
 31
0.0
  0
LINE
  5
A8
330
2
100
AcDbEntity
  8
OUTLINE
  6
CONTINUOUS
 48
25.4
100
AcDbLine
 10
201.0002766864983
 20
457.0565590980279
 30
0.0
 11
200.9808526844983
 21
457.0113924560279
 31
0.0
  0
LINE
  5
A9
330
2
100
AcDbEntity
  8
OUTLINE
  6
CONTINUOUS
 48
25.4
100
AcDbLine
 10
201.0220762934983
 20
457.0976556100281
 30
0.0
 11
201.0002766864983
 21
457.0565590980279
 31
0.0
  0
LINE
  5
AA
330
2
100
AcDbEntity
  8
OUTLINE
  6
CONTINUOUS
 48
25.4
100
AcDbLine
 10
201.0455541244982
 20
457.1351447415278
 30
0.0
 11
201.0220762934983
 21
457.0976556100281
 31
0.0
  0
LINE
  5
AB
330
2
100
AcDbEntity
  8
OUTLINE
  6
CONTINUOUS
 48
25.4
100
AcDbLine
 10
201.0700127959982
 20
457.1694874675278
 30
0.0
 11
201.0455541244982
 21
457.1351447415278
 31
0.0
  0
LINE
  5
AC
330
2
100
AcDbEntity
  8
OUTLINE
  6
CONTINUOUS
 48
25.4
100
AcDbLine
 10
201.0947549264983
 20
457.201143418028
 30
0.0
 11
201.0700127959982
 21
457.1694874675278
 31
0.0
  0
LINE
  5
AD
330
2
100
AcDbEntity
  8
OUTLINE
  6
CONTINUOUS
 48
25.4
100
AcDbLine
 10
201.1305727019983
 20
457.243353219028
 30
0.0
 11
201.0947549264983
 21
457.201143418028
 31
0.0
  0
LINE
  5
AE
330
2
100
AcDbEntity
  8
OUTLINE
  6
CONTINUOUS
 48
25.4
100
AcDbLine
 10
201.1672125389982
 20
457.281554090028
 30
0.0
 11
201.1305727019983
 21
457.243353219028
 31
0.0
  0
LINE
  5
AF
330
2
100
AcDbEntity
  8
OUTLINE
  6
CONTINUOUS
 48
25.4
100
AcDbLine
 10
201.1929370699983
 20
457.3051553800279
 30
0.0
 11
201.1672125389982
 21
457.281554090028
 31
0.0
  0
LINE
  5
B0
330
2
100
AcDbEntity
  8
OUTLINE
  6
CONTINUOUS
 48
25.4
100
AcDbLine
 10
201.2202888694983
 20
457.327515206528
 30
0.0
 11
201.1929370699983
 21
457.3051553800279
 31
0.0
  0
LINE
  5
B1
330
2
100
AcDbEntity
  8
OUTLINE
  6
CONTINUOUS
 48
25.4
100
AcDbLine
 10
201.2497727009983
 20
457.3488477605279
 30
0.0
 11
201.2202888694983
 21
457.327515206528
 31
0.0
  0
LINE
  5
B2
330
2
100
AcDbEntity
  8
OUTLINE
  6
CONTINUOUS
 48
25.4
100
AcDbLine
 10
201.2818933279983
 20
457.3693661065281
 30
0.0
 11
201.2497727009983
 21
457.3488477605279
 31
0.0
  0
LINE
  5
B3
330
2
100
AcDbEntity
  8
OUTLINE
  6
CONTINUOUS
 48
25.4
100
AcDbLine
 10
201.3171555129983
 20
457.3892820975281
 30
0.0
 11
201.2818933279983
 21
457.3693661065281
 31
0.0
  0
LINE
  5
B4
330
2
100
AcDbEntity
  8
OUTLINE
  6
CONTINUOUS
 48
25.4
100
AcDbLine
 10
201.3560640194981
 20
457.4088062610278
 30
0.0
 11
201.3171555129983
 21
457.3892820975281
 31
0.0
  0
LINE
  5
B5
330
2
100
AcDbEntity
  8
OUTLINE
  6
CONTINUOUS
 48
25.4
100
AcDbLine
 10
201.4023343569983
 20
457.4294404075279
 30
0.0
 11
201.3560640194981
 21
457.4088062610278
 31
0.0
  0
LINE
  5
B6
330
2
100
AcDbEntity
  8
OUTLINE
  6
CONTINUOUS
 48
25.4
100
AcDbLine
 10
201.4534283409981
 20
457.449447616528
 30
0.0
 11
201.4023343569983
 21
457.4294404075279
 31
0.0
  0
LINE
  5
B7
330
2
100
AcDbEntity
  8
OUTLINE
  6
CONTINUOUS
 48
25.4
100
AcDbLine
 10
201.5093928529982
 20
457.4684109005278
 30
0.0
 11
201.4534283409981
 21
457.449447616528
 31
0.0
  0
LINE
  5
B8
330
2
100
AcDbEntity
  8
OUTLINE
  6
CONTINUOUS
 48
25.4
100
AcDbLine
 10
201.5702747729983
 20
457.4859129330278
 30
0.0
 11
201.5093928529982
 21
457.4684109005278
 31
0.0
  0
LINE
  5
B9
330
2
100
AcDbEntity
  8
OUTLINE
  6
CONTINUOUS
 48
25.4
100
AcDbLine
 10
201.6361209829983
 20
457.5015359060279
 30
0.0
 11
201.5702747729983
 21
457.4859129330278
 31
0.0
  0
LINE
  5
BA
330
2
100
AcDbEntity
  8
OUTLINE
  6
CONTINUOUS
 48
25.4
100
AcDbLine
 10
201.7069783639982
 20
457.514861347028
 30
0.0
 11
201.6361209829983
 21
457.5015359060279
 31
0.0
  0
LINE
  5
BB
330
2
100
AcDbEntity
  8
OUTLINE
  6
CONTINUOUS
 48
25.4
100
AcDbLine
 10
201.7828937969983
 20
457.525469910028
 30
0.0
 11
201.7069783639982
 21
457.514861347028
 31
0.0
  0
LINE
  5
BC
330
2
100
AcDbEntity
  8
OUTLINE
  6
CONTINUOUS
 48
25.4
100
AcDbLine
 10
201.8639141629983
 20
457.5329411215281
 30
0.0
 11
201.7828937969983
 21
457.525469910028
 31
0.0
  0
LINE
  5
BD
330
2
100
AcDbEntity
  8
OUTLINE
  6
CONTINUOUS
 48
25.4
100
AcDbLine
 10
201.9500863429982
 20
457.5368531010282
 30
0.0
 11
201.8639141629983
 21
457.5329411215281
 31
0.0
  0
LINE
  5
BE
330
2
100
AcDbEntity
  8
OUTLINE
  6
CONTINUOUS
 48
25.4
100
AcDbLine
 10
202.0374140849983
 20
457.5387634805281
 30
0.0
 11
201.9500863429982
 21
457.5368531010282
 31
0.0
  0
LINE
  5
BF
330
2
100
AcDbEntity
  8
OUTLINE
  6
CONTINUOUS
 48
25.4
100
AcDbLine
 10
202.1249071894983
 20
457.5372791425278
 30
0.0
 11
202.0374140849983
 21
457.5387634805281
 31
0.0
  0
LINE
  5
C0
330
2
100
AcDbEntity
  8
OUTLINE
  6
CONTINUOUS
 48
25.4
100
AcDbLine
 10
202.2122375034983
 20
457.5323671990282
 30
0.0
 11
202.1249071894983
 21
457.5372791425278
 31
0.0
  0
LINE
  5
C1
330
2
100
AcDbEntity
  8
OUTLINE
  6
CONTINUOUS
 48
25.4
100
AcDbLine
 10
202.2990739709983
 20
457.5240201380281
 30
0.0
 11
202.2122375034983
 21
457.5323671990282
 31
0.0
  0
LINE
  5
C2
330
2
100
AcDbEntity
  8
OUTLINE
  6
CONTINUOUS
 48
25.4
100
AcDbLine
 10
202.3850867664982
 20
457.5122562395281
 30
0.0
 11
202.2990739709983
 21
457.5240201380281
 31
0.0
  0
LINE
  5
C3
330
2
100
AcDbEntity
  8
OUTLINE
  6
CONTINUOUS
 48
25.4
100
AcDbLine
 10
202.4699514484983
 20
457.4971195100281
 30
0.0
 11
202.3850867664982
 21
457.5122562395281
 31
0.0
  0
LINE
  5
C4
330
2
100
AcDbEntity
  8
OUTLINE
  6
CONTINUOUS
 48
25.4
100
AcDbLine
 10
202.5533530294983
 20
457.478679134028
 30
0.0
 11
202.4699514484983
 21
457.4971195100281
 31
0.0
  0
LINE
  5
C5
330
2
100
AcDbEntity
  8
OUTLINE
  6
CONTINUOUS
 48
25.4
100
AcDbLine
 10
202.6349898514983
 20
457.4570284605281
 30
0.0
 11
202.5533530294983
 21
457.478679134028
 31
0.0
  0
LINE
  5
C6
330
2
100
AcDbEntity
  8
OUTLINE
  6
CONTINUOUS
 48
25.4
100
AcDbLine
 10
202.7145771719983
 20
457.432283548028
 30
0.0
 11
202.6349898514983
 21
457.4570284605281
 31
0.0
  0
LINE
  5
C7
330
2
100
AcDbEntity
  8
OUTLINE
  6
CONTINUOUS
 48
25.4
100
AcDbLine
 10
202.7145771719983
 20
457.1692081540278
 30
0.0
 11
202.7145771719983
 21
457.432283548028
 31
0.0
  0
LINE
  5
C8
330
2
100
AcDbEntity
  8
OUTLINE
  6
CONTINUOUS
 48
25.4
100
AcDbLine
 10
202.6491960104983
 20
457.1976485540278
 30
0.0
 11
202.7145771719983
 21
457.1692081540278
 31
0.0
  0
LINE
  5
C9
330
2
100
AcDbEntity
  8
OUTLINE
  6
CONTINUOUS
 48
25.4
100
AcDbLine
 10
202.5808869779983
 20
457.2228532670281
 30
0.0
 11
202.6491960104983
 21
457.1976485540278
 31
0.0
  0
LINE
  5
CA
330
2
100
AcDbEntity
  8
OUTLINE
  6
CONTINUOUS
 48
25.4
100
AcDbLine
 10
202.5100267009983
 20
457.2446021815277
 30
0.0
 11
202.5808869779983
 21
457.2228532670281
 31
0.0
  0
LINE
  5
CB
330
2
100
AcDbEntity
  8
OUTLINE
  6
CONTINUOUS
 48
25.4
100
AcDbLine
 10
202.4370321179983
 20
457.2627142780278
 30
0.0
 11
202.5100267009983
 21
457.2446021815277
 31
0.0
  0
LINE
  5
CC
330
2
100
AcDbEntity
  8
OUTLINE
  6
CONTINUOUS
 48
25.4
100
AcDbLine
 10
202.3623525199981
 20
457.2770522620279
 30
0.0
 11
202.4370321179983
 21
457.2627142780278
 31
0.0
  0
LINE
  5
CD
330
2
100
AcDbEntity
  8
OUTLINE
  6
CONTINUOUS
 48
25.4
100
AcDbLine
 10
202.2864604169983
 20
457.2875259095281
 30
0.0
 11
202.3623525199981
 21
457.2770522620279
 31
0.0
  0
LINE
  5
CE
330
2
100
AcDbEntity
  8
OUTLINE
  6
CONTINUOUS
 48
25.4
100
AcDbLine
 10
202.2098416114983
 20
457.2940939515278
 30
0.0
 11
202.2864604169983
 21
457.2875259095281
 31
0.0
  0
LINE
  5
CF
330
2
100
AcDbEntity
  8
OUTLINE
  6
CONTINUOUS
 48
25.4
100
AcDbLine
 10
202.1329849239982
 20
457.296764416528
 30
0.0
 11
202.2098416114983
 21
457.2940939515278
 31
0.0
  0
LINE
  5
D0
330
2
100
AcDbEntity
  8
OUTLINE
  6
CONTINUOUS
 48
25.4
100
AcDbLine
 10
202.0563720104983
 20
457.2955934415277
 30
0.0
 11
202.1329849239982
 21
457.296764416528
 31
0.0
  0
LINE
  5
D1
330
2
100
AcDbEntity
  8
OUTLINE
  6
CONTINUOUS
 48
25.4
100
AcDbLine
 10
202.0023967244983
 20
457.2932001795281
 30
0.0
 11
202.0563720104983
 21
457.2955934415277
 31
0.0
  0
LINE
  5
D2
330
2
100
AcDbEntity
  8
OUTLINE
  6
CONTINUOUS
 48
25.4
100
AcDbLine
 10
201.9516483569983
 20
457.288481752028
 30
0.0
 11
202.0023967244983
 21
457.2932001795281
 31
0.0
  0
LINE
  5
D3
330
2
100
AcDbEntity
  8
OUTLINE
  6
CONTINUOUS
 48
25.4
100
AcDbLine
 10
201.9040975444981
 20
457.2817116755278
 30
0.0
 11
201.9516483569983
 21
457.288481752028
 31
0.0
  0
LINE
  5
D4
330
2
100
AcDbEntity
  8
OUTLINE
  6
CONTINUOUS
 48
25.4
100
AcDbLine
 10
201.8597149209983
 20
457.2731628980278
 30
0.0
 11
201.9040975444981
 21
457.2817116755278
 31
0.0
  0
LINE
  5
D5
330
2
100
AcDbEntity
  8
OUTLINE
  6
CONTINUOUS
 48
25.4
100
AcDbLine
 10
201.8184711224983
 20
457.263107917528
 30
0.0
 11
201.8597149209983
 21
457.2731628980278
 31
0.0
  0
LINE
  5
D6
330
2
100
AcDbEntity
  8
OUTLINE
  6
CONTINUOUS
 48
25.4
100
AcDbLine
 10
201.7803367839981
 20
457.2518188895279
 30
0.0
 11
201.8184711224983
 21
457.263107917528
 31
0.0
  0
LINE
  5
D7
330
2
100
AcDbEntity
  8
OUTLINE
  6
CONTINUOUS
 48
25.4
100
AcDbLine
 10
201.7452825409983
 20
457.2395677150281
 30
0.0
 11
201.7803367839981
 21
457.2518188895279
 31
0.0
  0
LINE
  5
D8
330
2
100
AcDbEntity
  8
OUTLINE
  6
CONTINUOUS
 48
25.4
100
AcDbLine
 10
201.7132790289982
 20
457.2266261195282
 30
0.0
 11
201.7452825409983
 21
457.2395677150281
 31
0.0
  0
LINE
  5
D9
330
2
100
AcDbEntity
  8
OUTLINE
  6
CONTINUOUS
 48
25.4
100
AcDbLine
 10
201.6842968824981
 20
457.2132657100279
 30
0.0
 11
201.7132790289982
 21
457.2266261195282
 31
0.0
  0
LINE
  5
DA
330
2
100
AcDbEntity
  8
OUTLINE
  6
CONTINUOUS
 48
25.4
100
AcDbLine
 10
201.6486166939983
 20
457.1941967985281
 30
0.0
 11
201.6842968824981
 21
457.2132657100279
 31
0.0
  0
LINE
  5
DB
330
2
100
AcDbEntity
  8
OUTLINE
  6
CONTINUOUS
 48
25.4
100
AcDbLine
 10
201.6177196609983
 20
457.1743792185279
 30
0.0
 11
201.6486166939983
 21
457.1941967985281
 31
0.0
  0
LINE
  5
DC
330
2
100
AcDbEntity
  8
OUTLINE
  6
CONTINUOUS
 48
25.4
100
AcDbLine
 10
201.5905387229983
 20
457.153349701528
 30
0.0
 11
201.6177196609983
 21
457.1743792185279
 31
0.0
  0
LINE
  5
DD
330
2
100
AcDbEntity
  8
OUTLINE
  6
CONTINUOUS
 48
25.4
100
AcDbLine
 10
201.5660068184983
 20
457.1306425035281
 30
0.0
 11
201.5905387229983
 21
457.153349701528
 31
0.0
  0
LINE
  5
DE
330
2
100
AcDbEntity
  8
OUTLINE
  6
CONTINUOUS
 48
25.4
100
AcDbLine
 10
201.5430568864982
 20
457.1057896135279
 30
0.0
 11
201.5660068184983
 21
457.1306425035281
 31
0.0
  0
LINE
  5
DF
330
2
100
AcDbEntity
  8
OUTLINE
  6
CONTINUOUS
 48
25.4
100
AcDbLine
 10
201.5206218654983
 20
457.0783208155277
 30
0.0
 11
201.5430568864982
 21
457.1057896135279
 31
0.0
  0
LINE
  5
E0
330
2
100
AcDbEntity
  8
OUTLINE
  6
CONTINUOUS
 48
25.4
100
AcDbLine
 10
201.4974147174983
 20
457.046779371528
 30
0.0
 11
201.5206218654983
 21
457.0783208155277
 31
0.0
  0
LINE
  5
E1
330
2
100
AcDbEntity
  8
OUTLINE
  6
CONTINUOUS
 48
25.4
100
AcDbLine
 10
201.4750984724983
 20
457.0109561025279
 30
0.0
 11
201.4974147174983
 21
457.046779371528
 31
0.0
  0
LINE
  5
E2
330
2
100
AcDbEntity
  8
OUTLINE
  6
CONTINUOUS
 48
25.4
100
AcDbLine
 10
201.4614439489982
 20
456.9841907770283
 30
0.0
 11
201.4750984724983
 21
457.0109561025279
 31
0.0
  0
LINE
  5
E3
330
2
100
AcDbEntity
  8
OUTLINE
  6
CONTINUOUS
 48
25.4
100
AcDbLine
 10
201.4492774229982
 20
456.9547648365279
 30
0.0
 11
201.4614439489982
 21
456.9841907770283
 31
0.0
  0
LINE
  5
E4
330
2
100
AcDbEntity
  8
OUTLINE
  6
CONTINUOUS
 48
25.4
100
AcDbLine
 10
201.4390357109983
 20
456.9223736735279
 30
0.0
 11
201.4492774229982
 21
456.9547648365279
 31
0.0
  0
LINE
  5
E5
330
2
100
AcDbEntity
  8
OUTLINE
  6
CONTINUOUS
 48
25.4
100
AcDbLine
 10
201.4311556294983
 20
456.8867114240281
 30
0.0
 11
201.4390357109983
 21
456.9223736735279
 31
0.0
  0
LINE
  5
E6
330
2
100
AcDbEntity
  8
OUTLINE
  6
CONTINUOUS
 48
25.4
100
AcDbLine
 10
201.4260739939983
 20
456.8474706655278
 30
0.0
 11
201.4311556294983
 21
456.8867114240281
 31
0.0
  0
LINE
  5
E7
330
2
100
AcDbEntity
  8
OUTLINE
  6
CONTINUOUS
 48
25.4
100
AcDbLine
 10
201.4242276214982
 20
456.8043420760282
 30
0.0
 11
201.4260739939983
 21
456.8474706655278
 31
0.0
  0
LINE
  5
E8
330
2
100
AcDbEntity
  8
OUTLINE
  6
CONTINUOUS
 48
25.4
100
AcDbLine
 10
201.4256628269983
 20
456.7613292710279
 30
0.0
 11
201.4242276214982
 21
456.8043420760282
 31
0.0
  0
LINE
  5
E9
330
2
100
AcDbEntity
  8
OUTLINE
  6
CONTINUOUS
 48
25.4
100
AcDbLine
 10
201.4296128379982
 20
456.722411197528
 30
0.0
 11
201.4256628269983
 21
456.7613292710279
 31
0.0
  0
LINE
  5
EA
330
2
100
AcDbEntity
  8
OUTLINE
  6
CONTINUOUS
 48
25.4
100
AcDbLine
 10
201.4357381114983
 20
456.6872589620278
 30
0.0
 11
201.4296128379982
 21
456.722411197528
 31
0.0
  0
LINE
  5
EB
330
2
100
AcDbEntity
  8
OUTLINE
  6
CONTINUOUS
 48
25.4
100
AcDbLine
 10
201.4436991059983
 20
456.6555418075278
 30
0.0
 11
201.4357381114983
 21
456.6872589620278
 31
0.0
  0
LINE
  5
EC
330
2
100
AcDbEntity
  8
OUTLINE
  6
CONTINUOUS
 48
25.4
100
AcDbLine
 10
201.4531562794982
 20
456.6269274125281
 30
0.0
 11
201.4436991059983
 21
456.6555418075278
 31
0.0
  0
LINE
  5
ED
330
2
100
AcDbEntity
  8
OUTLINE
  6
CONTINUOUS
 48
25.4
100
AcDbLine
 10
201.4637700894982
 20
456.6010821545281
 30
0.0
 11
201.4531562794982
 21
456.6269274125281
 31
0.0
  0
LINE
  5
EE
330
2
100
AcDbEntity
  8
OUTLINE
  6
CONTINUOUS
 48
25.4
100
AcDbLine
 10
201.4811167504983
 20
456.5667740205281
 30
0.0
 11
201.4637700894982
 21
456.6010821545281
 31
0.0
  0
LINE
  5
EF
330
2
100
AcDbEntity
  8
OUTLINE
  6
CONTINUOUS
 48
25.4
100
AcDbLine
 10
201.4991559204982
 20
456.536810126528
 30
0.0
 11
201.4811167504983
 21
456.5667740205281
 31
0.0
  0
LINE
  5
F0
330
2
100
AcDbEntity
  8
OUTLINE
  6
CONTINUOUS
 48
25.4
100
AcDbLine
 10
201.5165949069983
 20
456.5108583110279
 30
0.0
 11
201.4991559204982
 21
456.536810126528
 31
0.0
  0
LINE
  5
F1
330
2
100
AcDbEntity
  8
OUTLINE
  6
CONTINUOUS
 48
25.4
100
AcDbLine
 10
201.5344341399983
 20
456.4875613205281
 30
0.0
 11
201.5165949069983
 21
456.5108583110279
 31
0.0
  0
LINE
  5
F2
330
2
100
AcDbEntity
  8
OUTLINE
  6
CONTINUOUS
 48
25.4
100
AcDbLine
 10
201.5535030574983
 20
456.4665357125281
 30
0.0
 11
201.5344341399983
 21
456.4875613205281
 31
0.0
  0
LINE
  5
F3
330
2
100
AcDbEntity
  8
OUTLINE
  6
CONTINUOUS
 48
25.4
100
AcDbLine
 10
201.5746310979983
 20
456.4473962995279
 30
0.0
 11
201.5535030574983
 21
456.4665357125281
 31
0.0
  0
LINE
  5
F4
330
2
100
AcDbEntity
  8
OUTLINE
  6
CONTINUOUS
 48
25.4
100
AcDbLine
 10
201.5986476989982
 20
456.4297561770281
 30
0.0
 11
201.5746310979983
 21
456.4473962995279
 31
0.0
  0
LINE
  5
F5
330
2
100
AcDbEntity
  8
OUTLINE
  6
CONTINUOUS
 48
25.4
100
AcDbLine
 10
201.6263822994983
 20
456.413226645528
 30
0.0
 11
201.5986476989982
 21
456.4297561770281
 31
0.0
  0
LINE
  5
F6
330
2
100
AcDbEntity
  8
OUTLINE
  6
CONTINUOUS
 48
25.4
100
AcDbLine
 10
201.6610537839983
 20
456.396520035528
 30
0.0
 11
201.6263822994983
 21
456.413226645528
 31
0.0
  0
LINE
  5
F7
330
2
100
AcDbEntity
  8
OUTLINE
  6
CONTINUOUS
 48
25.4
100
AcDbLine
 10
201.7010351639983
 20
456.3815688285281
 30
0.0
 11
201.6610537839983
 21
456.396520035528
 31
0.0
  0
LINE
  5
F8
330
2
100
AcDbEntity
  8
OUTLINE
  6
CONTINUOUS
 48
25.4
100
AcDbLine
 10
201.7306774014981
 20
456.373034291528
 30
0.0
 11
201.7010351639983
 21
456.3815688285281
 31
0.0
  0
LINE
  5
F9
330
2
100
AcDbEntity
  8
OUTLINE
  6
CONTINUOUS
 48
25.4
100
AcDbLine
 10
201.7627366569983
 20
456.365966447528
 30
0.0
 11
201.7306774014981
 21
456.373034291528
 31
0.0
  0
LINE
  5
FA
330
2
100
AcDbEntity
  8
OUTLINE
  6
CONTINUOUS
 48
25.4
100
AcDbLine
 10
201.7972357549981
 20
456.3606397420279
 30
0.0
 11
201.7627366569983
 21
456.365966447528
 31
0.0
  0
LINE
  5
FB
330
2
100
AcDbEntity
  8
OUTLINE
  6
CONTINUOUS
 48
25.4
100
AcDbLine
 10
201.8341975209983
 20
456.357328407028
 30
0.0
 11
201.7972357549981
 21
456.3606397420279
 31
0.0
  0
LINE
  5
FC
330
2
100
AcDbEntity
  8
OUTLINE
  6
CONTINUOUS
 48
25.4
100
AcDbLine
 10
201.8736447814981
 20
456.3563063545282
 30
0.0
 11
201.8341975209983
 21
456.357328407028
 31
0.0
  0
LINE
  5
FD
330
2
100
AcDbEntity
  8
OUTLINE
  6
CONTINUOUS
 48
25.4
100
AcDbLine
 10
201.9156003609983
 20
456.357847059028
 30
0.0
 11
201.8736447814981
 21
456.3563063545282
 31
0.0
  0
LINE
  5
FE
330
2
100
AcDbEntity
  8
OUTLINE
  6
CONTINUOUS
 48
25.4
100
AcDbLine
 10
201.9602205484983
 20
456.3605529260282
 30
0.0
 11
201.9156003609983
 21
456.357847059028
 31
0.0
  0
LINE
  5
FF
330
2
100
AcDbEntity
  8
OUTLINE
  6
CONTINUOUS
 48
25.4
100
AcDbLine
 10
202.0049285369981
 20
456.365003239528
 30
0.0
 11
201.9602205484983
 21
456.3605529260282
 31
0.0
  0
LINE
  5
100
330
2
100
AcDbEntity
  8
OUTLINE
  6
CONTINUOUS
 48
25.4
100
AcDbLine
 10
202.0495522594983
 20
456.3712009730282
 30
0.0
 11
202.0049285369981
 21
456.365003239528
 31
0.0
  0
LINE
  5
101
330
2
100
AcDbEntity
  8
OUTLINE
  6
CONTINUOUS
 48
25.4
100
AcDbLine
 10
202.0939180789982
 20
456.379135564028
 30
0.0
 11
202.0495522594983
 21
456.3712009730282
 31
0.0
  0
LINE
  5
102
330
2
100
AcDbEntity
  8
OUTLINE
  6
CONTINUOUS
 48
25.4
100
AcDbLine
 10
202.1378530114982
 20
456.388782876528
 30
0.0
 11
202.0939180789982
 21
456.379135564028
 31
0.0
  0
LINE
  5
103
330
2
100
AcDbEntity
  8
OUTLINE
  6
CONTINUOUS
 48
25.4
100
AcDbLine
 10
202.1811869634983
 20
456.4001054275278
 30
0.0
 11
202.1378530114982
 21
456.388782876528
 31
0.0
  0
LINE
  5
104
330
2
100
AcDbEntity
  8
OUTLINE
  6
CONTINUOUS
 48
25.4
100
AcDbLine
 10
202.2237549209983
 20
456.4130528695281
 30
0.0
 11
202.1811869634983
 21
456.4001054275278
 31
0.0
  0
LINE
  5
105
330
2
100
AcDbEntity
  8
OUTLINE
  6
CONTINUOUS
 48
25.4
100
AcDbLine
 10
202.2653990314982
 20
456.427562721528
 30
0.0
 11
202.2237549209983
 21
456.4130528695281
 31
0.0
  0
LINE
  5
106
330
2
100
AcDbEntity
  8
OUTLINE
  6
CONTINUOUS
 48
25.4
100
AcDbLine
 10
202.3059705279983
 20
456.443561324028
 30
0.0
 11
202.2653990314982
 21
456.427562721528
 31
0.0
  0
LINE
  5
107
330
2
100
AcDbEntity
  8
OUTLINE
  6
CONTINUOUS
 48
25.4
100
AcDbLine
 10
202.3059705279983
 20
456.8414893845281
 30
0.0
 11
202.3059705279983
 21
456.443561324028
 31
0.0
  0
LINE
  5
108
330
2
100
AcDbEntity
  8
OUTLINE
  6
CONTINUOUS
 48
25.4
100
AcDbLine
 10
202.7734005024983
 20
456.8579607160279
 30
0.0
 11
202.3059705279983
 21
456.8414893845281
 31
0.0
  0
LINE
  5
109
330
2
100
AcDbEntity
  8
OUTLINE
  6
CONTINUOUS
 48
25.4
100
AcDbLine
 10
202.7734005024983
 20
456.301962639528
 30
0.0
 11
202.7734005024983
 21
456.8579607160279
 31
0.0
  0
LINE
  5
10A
330
2
100
AcDbEntity
  8
OUTLINE
  6
CONTINUOUS
 48
25.4
100
AcDbLine
 10
202.7734005024983
 20
456.526709792028
 30
0.0
 11
202.3059705279983
 21
456.526709792028
 31
0.0
  0
LINE
  5
10B
330
2
100
AcDbEntity
  8
OUTLINE
  6
CONTINUOUS
 48
25.4
100
AcDbLine
 10
202.3059705279983
 20
456.443561324028
 30
0.0
 11
202.3059705279983
 21
456.163255735028
 31
0.0
  0
LINE
  5
10C
330
2
100
AcDbEntity
  8
OUTLINE
  6
CONTINUOUS
 48
25.4
100
AcDbLine
 10
202.3059705279983
 20
456.163255735028
 30
0.0
 11
202.2653990314982
 21
456.1501003470278
 31
0.0
  0
LINE
  5
10D
330
2
100
AcDbEntity
  8
OUTLINE
  6
CONTINUOUS
 48
25.4
100
AcDbLine
 10
202.2653990314982
 20
456.427562721528
 30
0.0
 11
202.2653990314982
 21
456.1501003470278
 31
0.0
  0
LINE
  5
10E
330
2
100
AcDbEntity
  8
OUTLINE
  6
CONTINUOUS
 48
25.4
100
AcDbLine
 10
202.2653990314982
 20
456.1501003470278
 30
0.0
 11
202.2237549209983
 21
456.1383552875281
 31
0.0
  0
LINE
  5
10F
330
2
100
AcDbEntity
  8
OUTLINE
  6
CONTINUOUS
 48
25.4
100
AcDbLine
 10
202.2237549209983
 20
456.4130528695281
 30
0.0
 11
202.2237549209983
 21
456.1383552875281
 31
0.0
  0
LINE
  5
110
330
2
100
AcDbEntity
  8
OUTLINE
  6
CONTINUOUS
 48
25.4
100
AcDbLine
 10
202.2237549209983
 20
456.1383552875281
 30
0.0
 11
202.1991220434983
 21
456.1324106620278
 31
0.0
  0
LINE
  5
111
330
2
100
AcDbEntity
  8
OUTLINE
  6
CONTINUOUS
 48
25.4
100
AcDbLine
 10
202.1811869634983
 20
456.4001054275278
 30
0.0
 11
202.1811869634983
 21
456.1297652985278
 31
0.0
  0
LINE
  5
112
330
2
100
AcDbEntity
  8
OUTLINE
  6
CONTINUOUS
 48
25.4
100
AcDbLine
 10
202.1378530114982
 20
456.388782876528
 30
0.0
 11
202.1378530114982
 21
456.1234487125282
 31
0.0
  0
LINE
  5
113
330
2
100
AcDbEntity
  8
OUTLINE
  6
CONTINUOUS
 48
25.4
100
AcDbLine
 10
202.0939180789982
 20
456.379135564028
 30
0.0
 11
202.0939180789982
 21
456.118851829028
 31
0.0
  0
LINE
  5
114
330
2
100
AcDbEntity
  8
OUTLINE
  6
CONTINUOUS
 48
25.4
100
AcDbLine
 10
202.0495522594983
 20
456.3712009730282
 30
0.0
 11
202.0495522594983
 21
456.114209862528
 31
0.0
  0
LINE
  5
115
330
2
100
AcDbEntity
  8
OUTLINE
  6
CONTINUOUS
 48
25.4
100
AcDbLine
 10
202.0049285369981
 20
456.365003239528
 30
0.0
 11
202.0049285369981
 21
456.1112240590282
 31
0.0
  0
LINE
  5
116
330
2
100
AcDbEntity
  8
OUTLINE
  6
CONTINUOUS
 48
25.4
100
AcDbLine
 10
201.9602205484983
 20
456.3605529260282
 30
0.0
 11
201.9602205484983
 21
456.108436718028
 31
0.0
  0
LINE
  5
117
330
2
100
AcDbEntity
  8
OUTLINE
  6
CONTINUOUS
 48
25.4
100
AcDbLine
 10
201.9156003609983
 20
456.357847059028
 30
0.0
 11
201.9156003609983
 21
456.1064977320281
 31
0.0
  0
LINE
  5
118
330
2
100
AcDbEntity
  8
OUTLINE
  6
CONTINUOUS
 48
25.4
100
AcDbLine
 10
201.8736447814981
 20
456.3563063545282
 30
0.0
 11
201.8736447814981
 21
456.104907439028
 31
0.0
  0
LINE
  5
119
330
2
100
AcDbEntity
  8
OUTLINE
  6
CONTINUOUS
 48
25.4
100
AcDbLine
 10
201.8341975209983
 20
456.357328407028
 30
0.0
 11
201.8341975209983
 21
456.1047922745278
 31
0.0
  0
LINE
  5
11A
330
2
100
AcDbEntity
  8
OUTLINE
  6
CONTINUOUS
 48
25.4
100
AcDbLine
 10
201.8095851929983
 20
456.1050023700278
 30
0.0
 11
201.7972357549981
 21
456.1064863690277
 31
0.0
  0
LINE
  5
11B
330
2
100
AcDbEntity
  8
OUTLINE
  6
CONTINUOUS
 48
25.4
100
AcDbLine
 10
201.7972357549981
 20
456.3606397420279
 30
0.0
 11
201.7972357549981
 21
456.1064863690277
 31
0.0
  0
LINE
  5
11C
330
2
100
AcDbEntity
  8
OUTLINE
  6
CONTINUOUS
 48
25.4
100
AcDbLine
 10
201.7972357549981
 20
456.1064863690277
 30
0.0
 11
201.7627366569983
 21
456.112675686528
 31
0.0
  0
LINE
  5
11D
330
2
100
AcDbEntity
  8
OUTLINE
  6
CONTINUOUS
 48
25.4
100
AcDbLine
 10
201.7627366569983
 20
456.365966447528
 30
0.0
 11
201.7627366569983
 21
456.112675686528
 31
0.0
  0
LINE
  5
11E
330
2
100
AcDbEntity
  8
OUTLINE
  6
CONTINUOUS
 48
25.4
100
AcDbLine
 10
201.7627366569983
 20
456.112675686528
 30
0.0
 11
201.7306774014981
 21
456.1203627135283
 31
0.0
  0
LINE
  5
11F
330
2
100
AcDbEntity
  8
OUTLINE
  6
CONTINUOUS
 48
25.4
100
AcDbLine
 10
201.7306774014981
 20
456.373034291528
 30
0.0
 11
201.7306774014981
 21
456.1203627135283
 31
0.0
  0
LINE
  5
120
330
2
100
AcDbEntity
  8
OUTLINE
  6
CONTINUOUS
 48
25.4
100
AcDbLine
 10
201.7306774014981
 20
456.1203627135283
 30
0.0
 11
201.7010351639983
 21
456.1292974385279
 31
0.0
  0
LINE
  5
121
330
2
100
AcDbEntity
  8
OUTLINE
  6
CONTINUOUS
 48
25.4
100
AcDbLine
 10
201.7010351639983
 20
456.3815688285281
 30
0.0
 11
201.7010351639983
 21
456.1292974385279
 31
0.0
  0
LINE
  5
122
330
2
100
AcDbEntity
  8
OUTLINE
  6
CONTINUOUS
 48
25.4
100
AcDbLine
 10
201.7010351639983
 20
456.1292974385279
 30
0.0
 11
201.6610537839983
 21
456.1444920575278
 31
0.0
  0
LINE
  5
123
330
2
100
AcDbEntity
  8
OUTLINE
  6
CONTINUOUS
 48
25.4
100
AcDbLine
 10
201.6610537839983
 20
456.396520035528
 30
0.0
 11
201.6610537839983
 21
456.1444920575278
 31
0.0
  0
LINE
  5
124
330
2
100
AcDbEntity
  8
OUTLINE
  6
CONTINUOUS
 48
25.4
100
AcDbLine
 10
201.6610537839983
 20
456.1444920575278
 30
0.0
 11
201.6263822994983
 21
456.161087680028
 31
0.0
  0
LINE
  5
125
330
2
100
AcDbEntity
  8
OUTLINE
  6
CONTINUOUS
 48
25.4
100
AcDbLine
 10
201.6263822994983
 20
456.413226645528
 30
0.0
 11
201.6263822994983
 21
456.161087680028
 31
0.0
  0
LINE
  5
126
330
2
100
AcDbEntity
  8
OUTLINE
  6
CONTINUOUS
 48
25.4
100
AcDbLine
 10
201.6263822994983
 20
456.161087680028
 30
0.0
 11
201.5986476989982
 21
456.1772556725281
 31
0.0
  0
LINE
  5
127
330
2
100
AcDbEntity
  8
OUTLINE
  6
CONTINUOUS
 48
25.4
100
AcDbLine
 10
201.5986476989982
 20
456.4297561770281
 30
0.0
 11
201.5986476989982
 21
456.1772556725281
 31
0.0
  0
LINE
  5
128
330
2
100
AcDbEntity
  8
OUTLINE
  6
CONTINUOUS
 48
25.4
100
AcDbLine
 10
201.5986476989982
 20
456.1772556725281
 30
0.0
 11
201.5746310979983
 21
456.194294602028
 31
0.0
  0
LINE
  5
129
330
2
100
AcDbEntity
  8
OUTLINE
  6
CONTINUOUS
 48
25.4
100
AcDbLine
 10
201.5746310979983
 20
456.4473962995279
 30
0.0
 11
201.5746310979983
 21
456.194294602028
 31
0.0
  0
LINE
  5
12A
330
2
100
AcDbEntity
  8
OUTLINE
  6
CONTINUOUS
 48
25.4
100
AcDbLine
 10
201.5746310979983
 20
456.194294602028
 30
0.0
 11
201.5535030574983
 21
456.2125911800278
 31
0.0
  0
LINE
  5
12B
330
2
100
AcDbEntity
  8
OUTLINE
  6
CONTINUOUS
 48
25.4
100
AcDbLine
 10
201.5535030574983
 20
456.4665357125281
 30
0.0
 11
201.5535030574983
 21
456.2125911800278
 31
0.0
  0
LINE
  5
12C
330
2
100
AcDbEntity
  8
OUTLINE
  6
CONTINUOUS
 48
25.4
100
AcDbLine
 10
201.5535030574983
 20
456.2125911800278
 30
0.0
 11
201.5344341399983
 21
456.232532116028
 31
0.0
  0
LINE
  5
12D
330
2
100
AcDbEntity
  8
OUTLINE
  6
CONTINUOUS
 48
25.4
100
AcDbLine
 10
201.5344341399983
 20
456.4875613205281
 30
0.0
 11
201.5344341399983
 21
456.232532116028
 31
0.0
  0
LINE
  5
12E
330
2
100
AcDbEntity
  8
OUTLINE
  6
CONTINUOUS
 48
25.4
100
AcDbLine
 10
201.5344341399983
 20
456.232532116028
 30
0.0
 11
201.5165949069983
 21
456.2545041200279
 31
0.0
  0
LINE
  5
12F
330
2
100
AcDbEntity
  8
OUTLINE
  6
CONTINUOUS
 48
25.4
100
AcDbLine
 10
201.5165949069983
 20
456.5108583110279
 30
0.0
 11
201.5165949069983
 21
456.2545041200279
 31
0.0
  0
LINE
  5
130
330
2
100
AcDbEntity
  8
OUTLINE
  6
CONTINUOUS
 48
25.4
100
AcDbLine
 10
201.5165949069983
 20
456.2545041200279
 30
0.0
 11
201.4991559204982
 21
456.2788939030277
 31
0.0
  0
LINE
  5
131
330
2
100
AcDbEntity
  8
OUTLINE
  6
CONTINUOUS
 48
25.4
100
AcDbLine
 10
201.4991559204982
 20
456.536810126528
 30
0.0
 11
201.4991559204982
 21
456.2788939030277
 31
0.0
  0
LINE
  5
132
330
2
100
AcDbEntity
  8
OUTLINE
  6
CONTINUOUS
 48
25.4
100
AcDbLine
 10
201.4991559204982
 20
456.2788939030277
 30
0.0
 11
201.4811167504983
 21
456.306985719028
 31
0.0
  0
LINE
  5
133
330
2
100
AcDbEntity
  8
OUTLINE
  6
CONTINUOUS
 48
25.4
100
AcDbLine
 10
201.4811167504983
 20
456.5667740205281
 30
0.0
 11
201.4811167504983
 21
456.306985719028
 31
0.0
  0
LINE
  5
134
330
2
100
AcDbEntity
  8
OUTLINE
  6
CONTINUOUS
 48
25.4
100
AcDbLine
 10
201.4811167504983
 20
456.306985719028
 30
0.0
 11
201.4637700894982
 21
456.3390353755278
 31
0.0
  0
LINE
  5
135
330
2
100
AcDbEntity
  8
OUTLINE
  6
CONTINUOUS
 48
25.4
100
AcDbLine
 10
201.4637700894982
 20
456.6010821545281
 30
0.0
 11
201.4637700894982
 21
456.3390353755278
 31
0.0
  0
LINE
  5
136
330
2
100
AcDbEntity
  8
OUTLINE
  6
CONTINUOUS
 48
25.4
100
AcDbLine
 10
201.4637700894982
 20
456.3390353755278
 30
0.0
 11
201.4531562794982
 21
456.3630919070281
 31
0.0
  0
LINE
  5
137
330
2
100
AcDbEntity
  8
OUTLINE
  6
CONTINUOUS
 48
25.4
100
AcDbLine
 10
201.4531562794982
 20
456.6269274125281
 30
0.0
 11
201.4531562794982
 21
456.3630919070281
 31
0.0
  0
LINE
  5
138
330
2
100
AcDbEntity
  8
OUTLINE
  6
CONTINUOUS
 48
25.4
100
AcDbLine
 10
201.4531562794982
 20
456.3630919070281
 30
0.0
 11
201.4436991059983
 21
456.3896444185279
 31
0.0
  0
LINE
  5
139
330
2
100
AcDbEntity
  8
OUTLINE
  6
CONTINUOUS
 48
25.4
100
AcDbLine
 10
201.4436991059983
 20
456.6555418075278
 30
0.0
 11
201.4436991059983
 21
456.3896444185279
 31
0.0
  0
LINE
  5
13A
330
2
100
AcDbEntity
  8
OUTLINE
  6
CONTINUOUS
 48
25.4
100
AcDbLine
 10
201.4436991059983
 20
456.3896444185279
 30
0.0
 11
201.4357381114983
 21
456.418987687028
 31
0.0
  0
LINE
  5
13B
330
2
100
AcDbEntity
  8
OUTLINE
  6
CONTINUOUS
 48
25.4
100
AcDbLine
 10
201.4357381114983
 20
456.6872589620278
 30
0.0
 11
201.4357381114983
 21
456.418987687028
 31
0.0
  0
LINE
  5
13C
330
2
100
AcDbEntity
  8
OUTLINE
  6
CONTINUOUS
 48
25.4
100
AcDbLine
 10
201.4357381114983
 20
456.418987687028
 30
0.0
 11
201.4296128379982
 21
456.4514164875281
 31
0.0
  0
LINE
  5
13D
330
2
100
AcDbEntity
  8
OUTLINE
  6
CONTINUOUS
 48
25.4
100
AcDbLine
 10
201.4296128379982
 20
456.722411197528
 30
0.0
 11
201.4296128379982
 21
456.4514164875281
 31
0.0
  0
LINE
  5
13E
330
2
100
AcDbEntity
  8
OUTLINE
  6
CONTINUOUS
 48
25.4
100
AcDbLine
 10
201.4296128379982
 20
456.4514164875281
 30
0.0
 11
201.4256628269983
 21
456.4872255975281
 31
0.0
  0
LINE
  5
13F
330
2
100
AcDbEntity
  8
OUTLINE
  6
CONTINUOUS
 48
25.4
100
AcDbLine
 10
201.4256628269983
 20
456.7613292710279
 30
0.0
 11
201.4256628269983
 21
456.4872255975281
 31
0.0
  0
LINE
  5
140
330
2
100
AcDbEntity
  8
OUTLINE
  6
CONTINUOUS
 48
25.4
100
AcDbLine
 10
201.4256628269983
 20
456.4872255975281
 30
0.0
 11
201.4242276214982
 21
456.526709792028
 31
0.0
  0
LINE
  5
141
330
2
100
AcDbEntity
  8
OUTLINE
  6
CONTINUOUS
 48
25.4
100
AcDbLine
 10
201.4242276214982
 20
456.8043420760282
 30
0.0
 11
201.4242276214982
 21
456.526709792028
 31
0.0
  0
LINE
  5
142
330
2
100
AcDbEntity
  8
OUTLINE
  6
CONTINUOUS
 48
25.4
100
AcDbLine
 10
202.6349898514983
 20
457.4570284605281
 30
0.0
 11
202.6349898514983
 21
457.2028903525281
 31
0.0
  0
LINE
  5
143
330
2
100
AcDbEntity
  8
OUTLINE
  6
CONTINUOUS
 48
25.4
100
AcDbLine
 10
202.5533530294983
 20
457.478679134028
 30
0.0
 11
202.5533530294983
 21
457.2313041725281
 31
0.0
  0
LINE
  5
144
330
2
100
AcDbEntity
  8
OUTLINE
  6
CONTINUOUS
 48
25.4
100
AcDbLine
 10
202.4699514484983
 20
457.4971195100281
 30
0.0
 11
202.4699514484983
 21
457.254546026528
 31
0.0
  0
LINE
  5
145
330
2
100
AcDbEntity
  8
OUTLINE
  6
CONTINUOUS
 48
25.4
100
AcDbLine
 10
202.3850867664982
 20
457.5122562395281
 30
0.0
 11
202.3850867664982
 21
457.2726874385282
 31
0.0
  0
LINE
  5
146
330
2
100
AcDbEntity
  8
OUTLINE
  6
CONTINUOUS
 48
25.4
100
AcDbLine
 10
202.2990739709983
 20
457.5240201380281
 30
0.0
 11
202.2990739709983
 21
457.285785150028
 31
0.0
  0
LINE
  5
147
330
2
100
AcDbEntity
  8
OUTLINE
  6
CONTINUOUS
 48
25.4
100
AcDbLine
 10
202.2122375034983
 20
457.5323671990282
 30
0.0
 11
202.2122375034983
 21
457.2938885670279
 31
0.0
  0
LINE
  5
148
330
2
100
AcDbEntity
  8
OUTLINE
  6
CONTINUOUS
 48
25.4
100
AcDbLine
 10
202.1249071894983
 20
457.5372791425278
 30
0.0
 11
202.1249071894983
 21
457.2966409540278
 31
0.0
  0
LINE
  5
149
330
2
100
AcDbEntity
  8
OUTLINE
  6
CONTINUOUS
 48
25.4
100
AcDbLine
 10
202.0374140849983
 20
457.5387634805281
 30
0.0
 11
202.0374140849983
 21
457.2947528475281
 31
0.0
  0
LINE
  5
14A
330
2
100
AcDbEntity
  8
OUTLINE
  6
CONTINUOUS
 48
25.4
100
AcDbLine
 10
201.9500863429982
 20
457.5368531010282
 30
0.0
 11
201.9500863429982
 21
457.288259359028
 31
0.0
  0
LINE
  5
14B
330
2
100
AcDbEntity
  8
OUTLINE
  6
CONTINUOUS
 48
25.4
100
AcDbLine
 10
201.8639141629983
 20
457.5329411215281
 30
0.0
 11
201.8639141629983
 21
457.2739717365278
 31
0.0
  0
LINE
  5
14C
330
2
100
AcDbEntity
  8
OUTLINE
  6
CONTINUOUS
 48
25.4
100
AcDbLine
 10
201.7828937969983
 20
457.525469910028
 30
0.0
 11
201.7828937969983
 21
457.252575850028
 31
0.0
  0
LINE
  5
14D
330
2
100
AcDbEntity
  8
OUTLINE
  6
CONTINUOUS
 48
25.4
100
AcDbLine
 10
201.7069783639982
 20
457.514861347028
 30
0.0
 11
201.7069783639982
 21
457.2237215915277
 31
0.0
  0
LINE
  5
14E
330
2
100
AcDbEntity
  8
OUTLINE
  6
CONTINUOUS
 48
25.4
100
AcDbLine
 10
201.6361209829983
 20
457.5015359060279
 30
0.0
 11
201.6361209829983
 21
457.161556797028
 31
0.0
  0
LINE
  5
14F
330
2
100
AcDbEntity
  8
OUTLINE
  6
CONTINUOUS
 48
25.4
100
AcDbLine
 10
201.5702747729983
 20
457.4859129330278
 30
0.0
 11
201.5702747729983
 21
457.1497713405281
 31
0.0
  0
LINE
  5
150
330
2
100
AcDbEntity
  8
OUTLINE
  6
CONTINUOUS
 48
25.4
100
AcDbLine
 10
201.5702747729983
 20
457.1497713405281
 30
0.0
 11
201.5093928529982
 21
457.1360729665278
 31
0.0
  0
LINE
  5
151
330
2
100
AcDbEntity
  8
OUTLINE
  6
CONTINUOUS
 48
25.4
100
AcDbLine
 10
201.5093928529982
 20
457.4684109005278
 30
0.0
 11
201.5093928529982
 21
457.1360729665278
 31
0.0
  0
LINE
  5
152
330
2
100
AcDbEntity
  8
OUTLINE
  6
CONTINUOUS
 48
25.4
100
AcDbLine
 10
201.5093928529982
 20
457.1360729665278
 30
0.0
 11
201.4534283409981
 21
457.120844983028
 31
0.0
  0
LINE
  5
153
330
2
100
AcDbEntity
  8
OUTLINE
  6
CONTINUOUS
 48
25.4
100
AcDbLine
 10
201.4534283409981
 20
457.449447616528
 30
0.0
 11
201.4534283409981
 21
457.120844983028
 31
0.0
  0
LINE
  5
154
330
2
100
AcDbEntity
  8
OUTLINE
  6
CONTINUOUS
 48
25.4
100
AcDbLine
 10
201.4534283409981
 20
457.120844983028
 30
0.0
 11
201.4023343569983
 21
457.1044706960281
 31
0.0
  0
LINE
  5
155
330
2
100
AcDbEntity
  8
OUTLINE
  6
CONTINUOUS
 48
25.4
100
AcDbLine
 10
201.4023343569983
 20
457.4294404075279
 30
0.0
 11
201.4023343569983
 21
457.1044706960281
 31
0.0
  0
LINE
  5
156
330
2
100
AcDbEntity
  8
OUTLINE
  6
CONTINUOUS
 48
25.4
100
AcDbLine
 10
201.4023343569983
 20
457.1044706960281
 30
0.0
 11
201.3560640194981
 21
457.087333414028
 31
0.0
  0
LINE
  5
157
330
2
100
AcDbEntity
  8
OUTLINE
  6
CONTINUOUS
 48
25.4
100
AcDbLine
 10
201.3560640194981
 20
457.4088062610278
 30
0.0
 11
201.3560640194981
 21
457.087333414028
 31
0.0
  0
LINE
  5
158
330
2
100
AcDbEntity
  8
OUTLINE
  6
CONTINUOUS
 48
25.4
100
AcDbLine
 10
201.3560640194981
 20
457.087333414028
 30
0.0
 11
201.3171555129983
 21
457.070927081528
 31
0.0
  0
LINE
  5
159
330
2
100
AcDbEntity
  8
OUTLINE
  6
CONTINUOUS
 48
25.4
100
AcDbLine
 10
201.3171555129983
 20
457.3892820975281
 30
0.0
 11
201.3171555129983
 21
457.070927081528
 31
0.0
  0
LINE
  5
15A
330
2
100
AcDbEntity
  8
OUTLINE
  6
CONTINUOUS
 48
25.4
100
AcDbLine
 10
201.3171555129983
 20
457.070927081528
 30
0.0
 11
201.2818933279983
 21
457.0540151225281
 31
0.0
  0
LINE
  5
15B
330
2
100
AcDbEntity
  8
OUTLINE
  6
CONTINUOUS
 48
25.4
100
AcDbLine
 10
201.2818933279983
 20
457.3693661065281
 30
0.0
 11
201.2818933279983
 21
457.0540151225281
 31
0.0
  0
LINE
  5
15C
330
2
100
AcDbEntity
  8
OUTLINE
  6
CONTINUOUS
 48
25.4
100
AcDbLine
 10
201.2818933279983
 20
457.0540151225281
 30
0.0
 11
201.2497727009983
 21
457.0364218675278
 31
0.0
  0
LINE
  5
15D
330
2
100
AcDbEntity
  8
OUTLINE
  6
CONTINUOUS
 48
25.4
100
AcDbLine
 10
201.2497727009983
 20
457.3488477605279
 30
0.0
 11
201.2497727009983
 21
457.0364218675278
 31
0.0
  0
LINE
  5
15E
330
2
100
AcDbEntity
  8
OUTLINE
  6
CONTINUOUS
 48
25.4
100
AcDbLine
 10
201.2497727009983
 20
457.0364218675278
 30
0.0
 11
201.2202888694983
 21
457.0179716450278
 31
0.0
  0
LINE
  5
15F
330
2
100
AcDbEntity
  8
OUTLINE
  6
CONTINUOUS
 48
25.4
100
AcDbLine
 10
201.2202888694983
 20
457.327515206528
 30
0.0
 11
201.2202888694983
 21
457.0179716450278
 31
0.0
  0
LINE
  5
160
330
2
100
AcDbEntity
  8
OUTLINE
  6
CONTINUOUS
 48
25.4
100
AcDbLine
 10
201.2202888694983
 20
457.0179716450278
 30
0.0
 11
201.1929370699983
 21
456.9984887845279
 31
0.0
  0
LINE
  5
161
330
2
100
AcDbEntity
  8
OUTLINE
  6
CONTINUOUS
 48
25.4
100
AcDbLine
 10
201.1929370699983
 20
457.3051553800279
 30
0.0
 11
201.1929370699983
 21
456.9984887845279
 31
0.0
  0
LINE
  5
162
330
2
100
AcDbEntity
  8
OUTLINE
  6
CONTINUOUS
 48
25.4
100
AcDbLine
 10
201.1929370699983
 20
456.9984887845279
 30
0.0
 11
201.1672125389982
 21
456.9777976155277
 31
0.0
  0
LINE
  5
163
330
2
100
AcDbEntity
  8
OUTLINE
  6
CONTINUOUS
 48
25.4
100
AcDbLine
 10
201.1672125389982
 20
457.281554090028
 30
0.0
 11
201.1672125389982
 21
456.9777976155277
 31
0.0
  0
LINE
  5
164
330
2
100
AcDbEntity
  8
OUTLINE
  6
CONTINUOUS
 48
25.4
100
AcDbLine
 10
201.1672125389982
 20
456.9777976155277
 30
0.0
 11
201.1305727019983
 21
456.9441110030279
 31
0.0
  0
LINE
  5
165
330
2
100
AcDbEntity
  8
OUTLINE
  6
CONTINUOUS
 48
25.4
100
AcDbLine
 10
201.1305727019983
 20
457.243353219028
 30
0.0
 11
201.1305727019983
 21
456.9441110030279
 31
0.0
  0
LINE
  5
166
330
2
100
AcDbEntity
  8
OUTLINE
  6
CONTINUOUS
 48
25.4
100
AcDbLine
 10
201.1305727019983
 20
456.9441110030279
 30
0.0
 11
201.0947549264983
 21
456.9067175470278
 31
0.0
  0
LINE
  5
167
330
2
100
AcDbEntity
  8
OUTLINE
  6
CONTINUOUS
 48
25.4
100
AcDbLine
 10
201.0947549264983
 20
457.201143418028
 30
0.0
 11
201.0947549264983
 21
456.9067175470278
 31
0.0
  0
LINE
  5
168
330
2
100
AcDbEntity
  8
OUTLINE
  6
CONTINUOUS
 48
25.4
100
AcDbLine
 10
201.0947549264983
 20
456.9067175470278
 30
0.0
 11
201.0700127959982
 21
456.878603601528
 31
0.0
  0
LINE
  5
169
330
2
100
AcDbEntity
  8
OUTLINE
  6
CONTINUOUS
 48
25.4
100
AcDbLine
 10
201.0700127959982
 20
457.1694874675278
 30
0.0
 11
201.0700127959982
 21
456.878603601528
 31
0.0
  0
LINE
  5
16A
330
2
100
AcDbEntity
  8
OUTLINE
  6
CONTINUOUS
 48
25.4
100
AcDbLine
 10
201.0700127959982
 20
456.878603601528
 30
0.0
 11
201.0455541244982
 21
456.8480187340281
 31
0.0
  0
LINE
  5
16B
330
2
100
AcDbEntity
  8
OUTLINE
  6
CONTINUOUS
 48
25.4
100
AcDbLine
 10
201.0455541244982
 20
457.1351447415278
 30
0.0
 11
201.0455541244982
 21
456.8480187340281
 31
0.0
  0
LINE
  5
16C
330
2
100
AcDbEntity
  8
OUTLINE
  6
CONTINUOUS
 48
25.4
100
AcDbLine
 10
201.0455541244982
 20
456.8480187340281
 30
0.0
 11
201.0220762934983
 21
456.8145110065279
 31
0.0
  0
LINE
  5
16D
330
2
100
AcDbEntity
  8
OUTLINE
  6
CONTINUOUS
 48
25.4
100
AcDbLine
 10
201.0220762934983
 20
457.0976556100281
 30
0.0
 11
201.0220762934983
 21
456.8145110065279
 31
0.0
  0
LINE
  5
16E
330
2
100
AcDbEntity
  8
OUTLINE
  6
CONTINUOUS
 48
25.4
100
AcDbLine
 10
201.0220762934983
 20
456.8145110065279
 30
0.0
 11
201.0002766864983
 21
456.7776284790278
 31
0.0
  0
LINE
  5
16F
330
2
100
AcDbEntity
  8
OUTLINE
  6
CONTINUOUS
 48
25.4
100
AcDbLine
 10
201.0002766864983
 20
457.0565590980279
 30
0.0
 11
201.0002766864983
 21
456.7776284790278
 31
0.0
  0
LINE
  5
170
330
2
100
AcDbEntity
  8
OUTLINE
  6
CONTINUOUS
 48
25.4
100
AcDbLine
 10
201.0002766864983
 20
456.7776284790278
 30
0.0
 11
200.9808526844983
 21
456.7369192120279
 31
0.0
  0
LINE
  5
171
330
2
100
AcDbEntity
  8
OUTLINE
  6
CONTINUOUS
 48
25.4
100
AcDbLine
 10
200.9808526844983
 20
457.0113924560279
 30
0.0
 11
200.9808526844983
 21
456.7369192120279
 31
0.0
  0
LINE
  5
172
330
2
100
AcDbEntity
  8
OUTLINE
  6
CONTINUOUS
 48
25.4
100
AcDbLine
 10
200.9808526844983
 20
456.7369192120279
 30
0.0
 11
200.9645016709983
 21
456.6919312675278
 31
0.0
  0
LINE
  5
173
330
2
100
AcDbEntity
  8
OUTLINE
  6
CONTINUOUS
 48
25.4
100
AcDbLine
 10
200.9645016709983
 20
456.9616906250281
 30
0.0
 11
200.9645016709983
 21
456.6919312675278
 31
0.0
  0
LINE
  5
174
330
2
100
AcDbEntity
  8
OUTLINE
  6
CONTINUOUS
 48
25.4
100
AcDbLine
 10
200.9645016709983
 20
456.6919312675278
 30
0.0
 11
200.9519210274983
 21
456.6422127055282
 31
0.0
  0
LINE
  5
175
330
2
100
AcDbEntity
  8
OUTLINE
  6
CONTINUOUS
 48
25.4
100
AcDbLine
 10
200.9519210274983
 20
456.9069856085278
 30
0.0
 11
200.9519210274983
 21
456.6550409460281
 31
0.0
  0
LINE
  5
176
330
2
100
AcDbEntity
  8
OUTLINE
  6
CONTINUOUS
 48
25.4
100
AcDbLine
 10
200.9438081369983
 20
456.8468057445281
 30
0.0
 11
200.9438081369983
 21
456.7146159425282
 31
0.0
  0
LINE
  5
177
330
2
100
AcDbEntity
  8
OUTLINE
  6
CONTINUOUS
 48
25.4
100
AcDbLine
 10
204.6385627994983
 20
457.1140726395281
 30
0.0
 11
204.6404273924983
 21
457.152976314028
 31
0.0
  0
LINE
  5
178
330
2
100
AcDbEntity
  8
OUTLINE
  6
CONTINUOUS
 48
25.4
100
AcDbLine
 10
204.6334310164982
 20
457.078715823528
 30
0.0
 11
204.6385627994983
 21
457.1140726395281
 31
0.0
  0
LINE
  5
179
330
2
100
AcDbEntity
  8
OUTLINE
  6
CONTINUOUS
 48
25.4
100
AcDbLine
 10
204.6254731709983
 20
457.0466284835279
 30
0.0
 11
204.6334310164982
 21
457.078715823528
 31
0.0
  0
LINE
  5
17A
330
2
100
AcDbEntity
  8
OUTLINE
  6
CONTINUOUS
 48
25.4
100
AcDbLine
 10
204.6151303894983
 20
457.0175316545279
 30
0.0
 11
204.6254731709983
 21
457.0466284835279
 31
0.0
  0
LINE
  5
17B
330
2
100
AcDbEntity
  8
OUTLINE
  6
CONTINUOUS
 48
25.4
100
AcDbLine
 10
204.6028437994983
 20
456.991145089028
 30
0.0
 11
204.6151303894983
 21
457.0175316545279
 31
0.0
  0
LINE
  5
17C
330
2
100
AcDbEntity
  8
OUTLINE
  6
CONTINUOUS
 48
25.4
100
AcDbLine
 10
204.5890545279982
 20
456.967187524028
 30
0.0
 11
204.6028437994983
 21
456.991145089028
 31
0.0
  0
LINE
  5
17D
330
2
100
AcDbEntity
  8
OUTLINE
  6
CONTINUOUS
 48
25.4
100
AcDbLine
 10
204.5665180569983
 20
456.9351883995278
 30
0.0
 11
204.5890545279982
 21
456.967187524028
 31
0.0
  0
LINE
  5
17E
330
2
100
AcDbEntity
  8
OUTLINE
  6
CONTINUOUS
 48
25.4
100
AcDbLine
 10
204.5430818914983
 20
456.9070655105281
 30
0.0
 11
204.5665180569983
 21
456.9351883995278
 31
0.0
  0
LINE
  5
17F
330
2
100
AcDbEntity
  8
OUTLINE
  6
CONTINUOUS
 48
25.4
100
AcDbLine
 10
204.5204254724981
 20
456.8825969060281
 30
0.0
 11
204.5430818914983
 21
456.9070655105281
 31
0.0
  0
LINE
  5
180
330
2
100
AcDbEntity
  8
OUTLINE
  6
CONTINUOUS
 48
25.4
100
AcDbLine
 10
204.4972490609981
 20
456.8604971495281
 30
0.0
 11
204.5204254724981
 21
456.8825969060281
 31
0.0
  0
LINE
  5
181
330
2
100
AcDbEntity
  8
OUTLINE
  6
CONTINUOUS
 48
25.4
100
AcDbLine
 10
204.4724750659983
 20
456.840369254028
 30
0.0
 11
204.4972490609981
 21
456.8604971495281
 31
0.0
  0
LINE
  5
182
330
2
100
AcDbEntity
  8
OUTLINE
  6
CONTINUOUS
 48
25.4
100
AcDbLine
 10
204.4450258954983
 20
456.8218142080278
 30
0.0
 11
204.4724750659983
 21
456.840369254028
 31
0.0
  0
LINE
  5
183
330
2
100
AcDbEntity
  8
OUTLINE
  6
CONTINUOUS
 48
25.4
100
AcDbLine
 10
204.4138239579983
 20
456.804430877028
 30
0.0
 11
204.4450258954983
 21
456.8218142080278
 31
0.0
  0
LINE
  5
184
330
2
100
AcDbEntity
  8
OUTLINE
  6
CONTINUOUS
 48
25.4
100
AcDbLine
 10
204.3777916629982
 20
456.7878157635282
 30
0.0
 11
204.4138239579983
 21
456.804430877028
 31
0.0
  0
LINE
  5
185
330
2
100
AcDbEntity
  8
OUTLINE
  6
CONTINUOUS
 48
25.4
100
AcDbLine
 10
204.3453615614982
 20
456.7750828075278
 30
0.0
 11
204.3777916629982
 21
456.7878157635282
 31
0.0
  0
LINE
  5
186
330
2
100
AcDbEntity
  8
OUTLINE
  6
CONTINUOUS
 48
25.4
100
AcDbLine
 10
204.3092211979983
 20
456.7629028270282
 30
0.0
 11
204.3453615614982
 21
456.7750828075278
 31
0.0
  0
LINE
  5
187
330
2
100
AcDbEntity
  8
OUTLINE
  6
CONTINUOUS
 48
25.4
100
AcDbLine
 10
204.8954348984983
 20
456.2253731440278
 30
0.0
 11
204.3092211979983
 21
456.7629028270282
 31
0.0
  0
LINE
  5
188
330
2
100
AcDbEntity
  8
OUTLINE
  6
CONTINUOUS
 48
25.4
100
AcDbLine
 10
204.3191064409981
 20
456.217195358528
 30
0.0
 11
204.8954348984983
 21
456.2253731440278
 31
0.0
  0
LINE
  5
189
330
2
100
AcDbEntity
  8
OUTLINE
  6
CONTINUOUS
 48
25.4
100
AcDbLine
 10
203.6763902259983
 20
456.8711557155278
 30
0.0
 11
204.3191064409981
 21
456.217195358528
 31
0.0
  0
LINE
  5
18A
330
2
100
AcDbEntity
  8
OUTLINE
  6
CONTINUOUS
 48
25.4
100
AcDbLine
 10
203.9434103189983
 20
456.8771069735279
 30
0.0
 11
203.6763902259983
 21
456.8711557155278
 31
0.0
  0
LINE
  5
18B
330
2
100
AcDbEntity
  8
OUTLINE
  6
CONTINUOUS
 48
25.4
100
AcDbLine
 10
203.9713721744981
 20
456.8796259725282
 30
0.0
 11
203.9434103189983
 21
456.8771069735279
 31
0.0
  0
LINE
  5
18C
330
2
100
AcDbEntity
  8
OUTLINE
  6
CONTINUOUS
 48
25.4
100
AcDbLine
 10
203.9969794029983
 20
456.883756637528
 30
0.0
 11
203.9713721744981
 21
456.8796259725282
 31
0.0
  0
LINE
  5
18D
330
2
100
AcDbEntity
  8
OUTLINE
  6
CONTINUOUS
 48
25.4
100
AcDbLine
 10
204.0202606899983
 20
456.8892109985279
 30
0.0
 11
203.9969794029983
 21
456.883756637528
 31
0.0
  0
LINE
  5
18E
330
2
100
AcDbEntity
  8
OUTLINE
  6
CONTINUOUS
 48
25.4
100
AcDbLine
 10
204.0412447204983
 20
456.8957008760279
 30
0.0
 11
204.0202606899983
 21
456.8892109985279
 31
0.0
  0
LINE
  5
18F
330
2
100
AcDbEntity
  8
OUTLINE
  6
CONTINUOUS
 48
25.4
100
AcDbLine
 10
204.0599601794983
 20
456.902937962528
 30
0.0
 11
204.0412447204983
 21
456.8957008760279
 31
0.0
  0
LINE
  5
190
330
2
100
AcDbEntity
  8
OUTLINE
  6
CONTINUOUS
 48
25.4
100
AcDbLine
 10
204.0764357524983
 20
456.9106338810279
 30
0.0
 11
204.0599601794983
 21
456.902937962528
 31
0.0
  0
LINE
  5
191
330
2
100
AcDbEntity
  8
OUTLINE
  6
CONTINUOUS
 48
25.4
100
AcDbLine
 10
204.0915283379983
 20
456.9190456695279
 30
0.0
 11
204.0764357524983
 21
456.9106338810279
 31
0.0
  0
LINE
  5
192
330
2
100
AcDbEntity
  8
OUTLINE
  6
CONTINUOUS
 48
25.4
100
AcDbLine
 10
204.1045976659982
 20
456.9278519780278
 30
0.0
 11
204.0915283379983
 21
456.9190456695279
 31
0.0
  0
LINE
  5
193
330
2
100
AcDbEntity
  8
OUTLINE
  6
CONTINUOUS
 48
25.4
100
AcDbLine
 10
204.1196562824983
 20
456.9405587525281
 30
0.0
 11
204.1045976659982
 21
456.9278519780278
 31
0.0
  0
LINE
  5
194
330
2
100
AcDbEntity
  8
OUTLINE
  6
CONTINUOUS
 48
25.4
100
AcDbLine
 10
204.1329903169983
 20
456.954808926528
 30
0.0
 11
204.1196562824983
 21
456.9405587525281
 31
0.0
  0
LINE
  5
195
330
2
100
AcDbEntity
  8
OUTLINE
  6
CONTINUOUS
 48
25.4
100
AcDbLine
 10
204.1456696679983
 20
456.971081777528
 30
0.0
 11
204.1329903169983
 21
456.954808926528
 31
0.0
  0
LINE
  5
196
330
2
100
AcDbEntity
  8
OUTLINE
  6
CONTINUOUS
 48
25.4
100
AcDbLine
 10
204.1554862039983
 20
456.985353083028
 30
0.0
 11
204.1456696679983
 21
456.971081777528
 31
0.0
  0
LINE
  5
197
330
2
100
AcDbEntity
  8
OUTLINE
  6
CONTINUOUS
 48
25.4
100
AcDbLine
 10
204.1649258914982
 20
457.0015961455281
 30
0.0
 11
204.1554862039983
 21
456.985353083028
 31
0.0
  0
LINE
  5
198
330
2
100
AcDbEntity
  8
OUTLINE
  6
CONTINUOUS
 48
25.4
100
AcDbLine
 10
204.1733651264983
 20
457.0202960255279
 30
0.0
 11
204.1649258914982
 21
457.0015961455281
 31
0.0
  0
LINE
  5
199
330
2
100
AcDbEntity
  8
OUTLINE
  6
CONTINUOUS
 48
25.4
100
AcDbLine
 10
204.1801803034982
 20
457.0419369065278
 30
0.0
 11
204.1733651264983
 21
457.0202960255279
 31
0.0
  0
LINE
  5
19A
330
2
100
AcDbEntity
  8
OUTLINE
  6
CONTINUOUS
 48
25.4
100
AcDbLine
 10
204.1847478194983
 20
457.0670017395278
 30
0.0
 11
204.1801803034982
 21
457.0419369065278
 31
0.0
  0
LINE
  5
19B
330
2
100
AcDbEntity
  8
OUTLINE
  6
CONTINUOUS
 48
25.4
100
AcDbLine
 10
204.1864440699983
 20
457.0959717970281
 30
0.0
 11
204.1847478194983
 21
457.0670017395278
 31
0.0
  0
LINE
  5
19C
330
2
100
AcDbEntity
  8
OUTLINE
  6
CONTINUOUS
 48
25.4
100
AcDbLine
 10
204.1847478194983
 20
457.1248623600281
 30
0.0
 11
204.1864440699983
 21
457.0959717970281
 31
0.0
  0
LINE
  5
19D
330
2
100
AcDbEntity
  8
OUTLINE
  6
CONTINUOUS
 48
25.4
100
AcDbLine
 10
204.1801803034982
 20
457.1497166100281
 30
0.0
 11
204.1847478194983
 21
457.1248623600281
 31
0.0
  0
LINE
  5
19E
330
2
100
AcDbEntity
  8
OUTLINE
  6
CONTINUOUS
 48
25.4
100
AcDbLine
 10
204.1733651264983
 20
457.1710486845279
 30
0.0
 11
204.1801803034982
 21
457.1497166100281
 31
0.0
  0
LINE
  5
19F
330
2
100
AcDbEntity
  8
OUTLINE
  6
CONTINUOUS
 48
25.4
100
AcDbLine
 10
204.1649258914982
 20
457.189371036028
 30
0.0
 11
204.1733651264983
 21
457.1710486845279
 31
0.0
  0
LINE
  5
1A0
330
2
100
AcDbEntity
  8
OUTLINE
  6
CONTINUOUS
 48
25.4
100
AcDbLine
 10
204.1554862039983
 20
457.2051948775281
 30
0.0
 11
204.1649258914982
 21
457.189371036028
 31
0.0
  0
LINE
  5
1A1
330
2
100
AcDbEntity
  8
OUTLINE
  6
CONTINUOUS
 48
25.4
100
AcDbLine
 10
204.1456696679983
 20
457.2190305450281
 30
0.0
 11
204.1554862039983
 21
457.2051948775281
 31
0.0
  0
LINE
  5
1A2
330
2
100
AcDbEntity
  8
OUTLINE
  6
CONTINUOUS
 48
25.4
100
AcDbLine
 10
204.1361797384983
 20
457.2310205615281
 30
0.0
 11
204.1456696679983
 21
457.2190305450281
 31
0.0
  0
LINE
  5
1A3
330
2
100
AcDbEntity
  8
OUTLINE
  6
CONTINUOUS
 48
25.4
100
AcDbLine
 10
204.1264720039982
 20
457.2417965870279
 30
0.0
 11
204.1361797384983
 21
457.2310205615281
 31
0.0
  0
LINE
  5
1A4
330
2
100
AcDbEntity
  8
OUTLINE
  6
CONTINUOUS
 48
25.4
100
AcDbLine
 10
204.1124094154983
 20
457.2545957760282
 30
0.0
 11
204.1264720039982
 21
457.2417965870279
 31
0.0
  0
LINE
  5
1A5
330
2
100
AcDbEntity
  8
OUTLINE
  6
CONTINUOUS
 48
25.4
100
AcDbLine
 10
204.0960872974983
 20
457.2660026860278
 30
0.0
 11
204.1124094154983
 21
457.2545957760282
 31
0.0
  0
LINE
  5
1A6
330
2
100
AcDbEntity
  8
OUTLINE
  6
CONTINUOUS
 48
25.4
100
AcDbLine
 10
204.0764357524983
 20
457.276453111528
 30
0.0
 11
204.0960872974983
 21
457.2660026860278
 31
0.0
  0
LINE
  5
1A7
330
2
100
AcDbEntity
  8
OUTLINE
  6
CONTINUOUS
 48
25.4
100
AcDbLine
 10
204.0575682609981
 20
457.2843532465281
 30
0.0
 11
204.0764357524983
 21
457.276453111528
 31
0.0
  0
LINE
  5
1A8
330
2
100
AcDbEntity
  8
OUTLINE
  6
CONTINUOUS
 48
25.4
100
AcDbLine
 10
204.0358112359981
 20
457.2914926525282
 30
0.0
 11
204.0575682609981
 21
457.2843532465281
 31
0.0
  0
LINE
  5
1A9
330
2
100
AcDbEntity
  8
OUTLINE
  6
CONTINUOUS
 48
25.4
100
AcDbLine
 10
204.0111227564983
 20
457.2974485135282
 30
0.0
 11
204.0358112359981
 21
457.2914926525282
 31
0.0
  0
LINE
  5
1AA
330
2
100
AcDbEntity
  8
OUTLINE
  6
CONTINUOUS
 48
25.4
100
AcDbLine
 10
203.9834609009982
 20
457.3017978680281
 30
0.0
 11
204.0111227564983
 21
457.2974485135282
 31
0.0
  0
LINE
  5
1AB
330
2
100
AcDbEntity
  8
OUTLINE
  6
CONTINUOUS
 48
25.4
100
AcDbLine
 10
203.9527837474983
 20
457.3041174845278
 30
0.0
 11
203.9834609009982
 21
457.3017978680281
 31
0.0
  0
LINE
  5
1AC
330
2
100
AcDbEntity
  8
OUTLINE
  6
CONTINUOUS
 48
25.4
100
AcDbLine
 10
203.9190493754983
 20
457.3039836970281
 30
0.0
 11
203.9527837474983
 21
457.3041174845278
 31
0.0
  0
LINE
  5
1AD
330
2
100
AcDbEntity
  8
OUTLINE
  6
CONTINUOUS
 48
25.4
100
AcDbLine
 10
203.6179614789983
 20
457.2971517290278
 30
0.0
 11
203.9190493754983
 21
457.3039836970281
 31
0.0
  0
LINE
  5
1AE
330
2
100
AcDbEntity
  8
OUTLINE
  6
CONTINUOUS
 48
25.4
100
AcDbLine
 10
203.6179614789983
 20
456.2026805560281
 30
0.0
 11
203.6179614789983
 21
457.2971517290278
 31
0.0
  0
LINE
  5
1AF
330
2
100
AcDbEntity
  8
OUTLINE
  6
CONTINUOUS
 48
25.4
100
AcDbLine
 10
203.1531873569983
 20
456.1902947460279
 30
0.0
 11
203.6179614789983
 21
456.2026805560281
 31
0.0
  0
LINE
  5
1B0
330
2
100
AcDbEntity
  8
OUTLINE
  6
CONTINUOUS
 48
25.4
100
AcDbLine
 10
203.1531873569983
 20
457.5399763895282
 30
0.0
 11
203.1531873569983
 21
456.1902947460279
 31
0.0
  0
LINE
  5
1B1
330
2
100
AcDbEntity
  8
OUTLINE
  6
CONTINUOUS
 48
25.4
100
AcDbLine
 10
204.0020447464983
 20
457.5608782430281
 30
0.0
 11
203.1531873569983
 21
457.5399763895282
 31
0.0
  0
LINE
  5
1B2
330
2
100
AcDbEntity
  8
OUTLINE
  6
CONTINUOUS
 48
25.4
100
AcDbLine
 10
204.0565526824983
 20
457.5617785080281
 30
0.0
 11
204.0020447464983
 21
457.5608782430281
 31
0.0
  0
LINE
  5
1B3
330
2
100
AcDbEntity
  8
OUTLINE
  6
CONTINUOUS
 48
25.4
100
AcDbLine
 10
204.1078018554983
 20
457.5603922710278
 30
0.0
 11
204.0565526824983
 21
457.5617785080281
 31
0.0
  0
LINE
  5
1B4
330
2
100
AcDbEntity
  8
OUTLINE
  6
CONTINUOUS
 48
25.4
100
AcDbLine
 10
204.1558219189981
 20
457.5569688980281
 30
0.0
 11
204.1078018554983
 21
457.5603922710278
 31
0.0
  0
LINE
  5
1B5
330
2
100
AcDbEntity
  8
OUTLINE
  6
CONTINUOUS
 48
25.4
100
AcDbLine
 10
204.2006425279982
 20
457.551757205528
 30
0.0
 11
204.1558219189981
 21
457.5569688980281
 31
0.0
  0
LINE
  5
1B6
330
2
100
AcDbEntity
  8
OUTLINE
  6
CONTINUOUS
 48
25.4
100
AcDbLine
 10
204.2422933369983
 20
457.5450055615281
 30
0.0
 11
204.2006425279982
 21
457.551757205528
 31
0.0
  0
LINE
  5
1B7
330
2
100
AcDbEntity
  8
OUTLINE
  6
CONTINUOUS
 48
25.4
100
AcDbLine
 10
204.2808040004983
 20
457.5369619760281
 30
0.0
 11
204.2422933369983
 21
457.5450055615281
 31
0.0
  0
LINE
  5
1B8
330
2
100
AcDbEntity
  8
OUTLINE
  6
CONTINUOUS
 48
25.4
100
AcDbLine
 10
204.3327470919983
 20
457.5230160540278
 30
0.0
 11
204.2808040004983
 21
457.5369619760281
 31
0.0
  0
LINE
  5
1B9
330
2
100
AcDbEntity
  8
OUTLINE
  6
CONTINUOUS
 48
25.4
100
AcDbLine
 10
204.3777916629982
 20
457.5075558270281
 30
0.0
 11
204.3327470919983
 21
457.5230160540278
 31
0.0
  0
LINE
  5
1BA
330
2
100
AcDbEntity
  8
OUTLINE
  6
CONTINUOUS
 48
25.4
100
AcDbLine
 10
204.4138239579983
 20
457.4923427455281
 30
0.0
 11
204.3777916629982
 21
457.5075558270281
 31
0.0
  0
LINE
  5
1BB
330
2
100
AcDbEntity
  8
OUTLINE
  6
CONTINUOUS
 48
25.4
100
AcDbLine
 10
204.4450258954983
 20
457.4761836090281
 30
0.0
 11
204.4138239579983
 21
457.4923427455281
 31
0.0
  0
LINE
  5
1BC
330
2
100
AcDbEntity
  8
OUTLINE
  6
CONTINUOUS
 48
25.4
100
AcDbLine
 10
204.4724750659983
 20
457.4587206285278
 30
0.0
 11
204.4450258954983
 21
457.4761836090281
 31
0.0
  0
LINE
  5
1BD
330
2
100
AcDbEntity
  8
OUTLINE
  6
CONTINUOUS
 48
25.4
100
AcDbLine
 10
204.4972490609981
 20
457.4395936605281
 30
0.0
 11
204.4724750659983
 21
457.4587206285278
 31
0.0
  0
LINE
  5
1BE
330
2
100
AcDbEntity
  8
OUTLINE
  6
CONTINUOUS
 48
25.4
100
AcDbLine
 10
204.5204254724981
 20
457.4184404495277
 30
0.0
 11
204.4972490609981
 21
457.4395936605281
 31
0.0
  0
LINE
  5
1BF
330
2
100
AcDbEntity
  8
OUTLINE
  6
CONTINUOUS
 48
25.4
100
AcDbLine
 10
204.5430818914983
 20
457.3948967245279
 30
0.0
 11
204.5204254724981
 21
457.4184404495277
 31
0.0
  0
LINE
  5
1C0
330
2
100
AcDbEntity
  8
OUTLINE
  6
CONTINUOUS
 48
25.4
100
AcDbLine
 10
204.5665180569983
 20
457.3677198320281
 30
0.0
 11
204.5430818914983
 21
457.3948967245279
 31
0.0
  0
LINE
  5
1C1
330
2
100
AcDbEntity
  8
OUTLINE
  6
CONTINUOUS
 48
25.4
100
AcDbLine
 10
204.5890545279982
 20
457.336628207028
 30
0.0
 11
204.5665180569983
 21
457.3677198320281
 31
0.0
  0
LINE
  5
1C2
330
2
100
AcDbEntity
  8
OUTLINE
  6
CONTINUOUS
 48
25.4
100
AcDbLine
 10
204.6028437994983
 20
457.3132298515278
 30
0.0
 11
204.5890545279982
 21
457.336628207028
 31
0.0
  0
LINE
  5
1C3
330
2
100
AcDbEntity
  8
OUTLINE
  6
CONTINUOUS
 48
25.4
100
AcDbLine
 10
204.6151303894983
 20
457.2873471835279
 30
0.0
 11
204.6028437994983
 21
457.3132298515278
 31
0.0
  0
LINE
  5
1C4
330
2
100
AcDbEntity
  8
OUTLINE
  6
CONTINUOUS
 48
25.4
100
AcDbLine
 10
204.6254731709983
 20
457.2586811970278
 30
0.0
 11
204.6151303894983
 21
457.2873471835279
 31
0.0
  0
LINE
  5
1C5
330
2
100
AcDbEntity
  8
OUTLINE
  6
CONTINUOUS
 48
25.4
100
AcDbLine
 10
204.6334310164982
 20
457.2269318660279
 30
0.0
 11
204.6254731709983
 21
457.2586811970278
 31
0.0
  0
LINE
  5
1C6
330
2
100
AcDbEntity
  8
OUTLINE
  6
CONTINUOUS
 48
25.4
100
AcDbLine
 10
204.6385627994983
 20
457.191797874528
 30
0.0
 11
204.6334310164982
 21
457.2269318660279
 31
0.0
  0
LINE
  5
1C7
330
2
100
AcDbEntity
  8
OUTLINE
  6
CONTINUOUS
 48
25.4
100
AcDbLine
 10
204.6404273924983
 20
457.152976314028
 30
0.0
 11
204.6385627994983
 21
457.191797874528
 31
0.0
  0
LINE
  5
1C8
330
2
100
AcDbEntity
  8
OUTLINE
  6
CONTINUOUS
 48
25.4
100
AcDbLine
 10
204.6385627994983
 20
457.191797874528
 30
0.0
 11
204.6385627994983
 21
457.1140726395281
 31
0.0
  0
LINE
  5
1C9
330
2
100
AcDbEntity
  8
OUTLINE
  6
CONTINUOUS
 48
25.4
100
AcDbLine
 10
204.6334310164982
 20
457.2269318660279
 30
0.0
 11
204.6334310164982
 21
457.078715823528
 31
0.0
  0
LINE
  5
1CA
330
2
100
AcDbEntity
  8
OUTLINE
  6
CONTINUOUS
 48
25.4
100
AcDbLine
 10
204.6254731709983
 20
457.2586811970278
 30
0.0
 11
204.6254731709983
 21
457.0466284835279
 31
0.0
  0
LINE
  5
1CB
330
2
100
AcDbEntity
  8
OUTLINE
  6
CONTINUOUS
 48
25.4
100
AcDbLine
 10
204.6151303894983
 20
457.2873471835279
 30
0.0
 11
204.6151303894983
 21
457.0175316545279
 31
0.0
  0
LINE
  5
1CC
330
2
100
AcDbEntity
  8
OUTLINE
  6
CONTINUOUS
 48
25.4
100
AcDbLine
 10
204.6028437994983
 20
457.3132298515278
 30
0.0
 11
204.6028437994983
 21
456.991145089028
 31
0.0
  0
LINE
  5
1CD
330
2
100
AcDbEntity
  8
OUTLINE
  6
CONTINUOUS
 48
25.4
100
AcDbLine
 10
204.5890545279982
 20
457.336628207028
 30
0.0
 11
204.5890545279982
 21
456.967187524028
 31
0.0
  0
LINE
  5
1CE
330
2
100
AcDbEntity
  8
OUTLINE
  6
CONTINUOUS
 48
25.4
100
AcDbLine
 10
204.5665180569983
 20
457.3677198320281
 30
0.0
 11
204.5665180569983
 21
456.9572394795281
 31
0.0
  0
LINE
  5
1CF
330
2
100
AcDbEntity
  8
OUTLINE
  6
CONTINUOUS
 48
25.4
100
AcDbLine
 10
204.5665180569983
 20
456.9572394795281
 30
0.0
 11
204.5430818914983
 21
456.982725857528
 31
0.0
  0
LINE
  5
1D0
330
2
100
AcDbEntity
  8
OUTLINE
  6
CONTINUOUS
 48
25.4
100
AcDbLine
 10
204.5430818914983
 20
457.3948967245279
 30
0.0
 11
204.5430818914983
 21
456.982725857528
 31
0.0
  0
LINE
  5
1D1
330
2
100
AcDbEntity
  8
OUTLINE
  6
CONTINUOUS
 48
25.4
100
AcDbLine
 10
204.5430818914983
 20
456.982725857528
 30
0.0
 11
204.5204254724981
 21
457.004853554528
 31
0.0
  0
LINE
  5
1D2
330
2
100
AcDbEntity
  8
OUTLINE
  6
CONTINUOUS
 48
25.4
100
AcDbLine
 10
204.5204254724981
 20
457.4184404495277
 30
0.0
 11
204.5204254724981
 21
457.004853554528
 31
0.0
  0
LINE
  5
1D3
330
2
100
AcDbEntity
  8
OUTLINE
  6
CONTINUOUS
 48
25.4
100
AcDbLine
 10
204.5204254724981
 20
457.004853554528
 30
0.0
 11
204.4972490609981
 21
457.0247877160282
 31
0.0
  0
LINE
  5
1D4
330
2
100
AcDbEntity
  8
OUTLINE
  6
CONTINUOUS
 48
25.4
100
AcDbLine
 10
204.4972490609981
 20
457.4395936605281
 30
0.0
 11
204.4972490609981
 21
457.0247877160282
 31
0.0
  0
LINE
  5
1D5
330
2
100
AcDbEntity
  8
OUTLINE
  6
CONTINUOUS
 48
25.4
100
AcDbLine
 10
204.4972490609981
 20
457.0247877160282
 30
0.0
 11
204.4724750659983
 21
457.0428791845281
 31
0.0
  0
LINE
  5
1D6
330
2
100
AcDbEntity
  8
OUTLINE
  6
CONTINUOUS
 48
25.4
100
AcDbLine
 10
204.4724750659983
 20
457.4587206285278
 30
0.0
 11
204.4724750659983
 21
457.0428791845281
 31
0.0
  0
LINE
  5
1D7
330
2
100
AcDbEntity
  8
OUTLINE
  6
CONTINUOUS
 48
25.4
100
AcDbLine
 10
204.4724750659983
 20
457.0428791845281
 30
0.0
 11
204.4450258954983
 21
457.0594788050278
 31
0.0
  0
LINE
  5
1D8
330
2
100
AcDbEntity
  8
OUTLINE
  6
CONTINUOUS
 48
25.4
100
AcDbLine
 10
204.4450258954983
 20
457.4761836090281
 30
0.0
 11
204.4450258954983
 21
457.0594788050278
 31
0.0
  0
LINE
  5
1D9
330
2
100
AcDbEntity
  8
OUTLINE
  6
CONTINUOUS
 48
25.4
100
AcDbLine
 10
204.4450258954983
 20
457.0594788050278
 30
0.0
 11
204.4138239579983
 21
457.0749374210278
 31
0.0
  0
LINE
  5
1DA
330
2
100
AcDbEntity
  8
OUTLINE
  6
CONTINUOUS
 48
25.4
100
AcDbLine
 10
204.4138239579983
 20
457.4923427455281
 30
0.0
 11
204.4138239579983
 21
457.0749374210278
 31
0.0
  0
LINE
  5
1DB
330
2
100
AcDbEntity
  8
OUTLINE
  6
CONTINUOUS
 48
25.4
100
AcDbLine
 10
204.4138239579983
 20
457.0749374210278
 30
0.0
 11
204.3777916629982
 21
457.089605876528
 31
0.0
  0
LINE
  5
1DC
330
2
100
AcDbEntity
  8
OUTLINE
  6
CONTINUOUS
 48
25.4
100
AcDbLine
 10
204.3777916629982
 20
457.5075558270281
 30
0.0
 11
204.3777916629982
 21
457.089605876528
 31
0.0
  0
LINE
  5
1DD
330
2
100
AcDbEntity
  8
OUTLINE
  6
CONTINUOUS
 48
25.4
100
AcDbLine
 10
204.3777916629982
 20
457.089605876528
 30
0.0
 11
204.3327470919983
 21
457.1046623010281
 31
0.0
  0
LINE
  5
1DE
330
2
100
AcDbEntity
  8
OUTLINE
  6
CONTINUOUS
 48
25.4
100
AcDbLine
 10
204.3327470919983
 20
457.5230160540278
 30
0.0
 11
204.3327470919983
 21
457.1046623010281
 31
0.0
  0
LINE
  5
1DF
330
2
100
AcDbEntity
  8
OUTLINE
  6
CONTINUOUS
 48
25.4
100
AcDbLine
 10
204.3327470919983
 20
457.1046623010281
 30
0.0
 11
204.2808040004983
 21
457.1184476630279
 31
0.0
  0
LINE
  5
1E0
330
2
100
AcDbEntity
  8
OUTLINE
  6
CONTINUOUS
 48
25.4
100
AcDbLine
 10
204.2808040004983
 20
457.5369619760281
 30
0.0
 11
204.2808040004983
 21
457.1184476630279
 31
0.0
  0
LINE
  5
1E1
330
2
100
AcDbEntity
  8
OUTLINE
  6
CONTINUOUS
 48
25.4
100
AcDbLine
 10
204.2808040004983
 20
457.1184476630279
 30
0.0
 11
204.2422933369983
 21
457.1265537195279
 31
0.0
  0
LINE
  5
1E2
330
2
100
AcDbEntity
  8
OUTLINE
  6
CONTINUOUS
 48
25.4
100
AcDbLine
 10
204.2422933369983
 20
457.5450055615281
 30
0.0
 11
204.2422933369983
 21
457.1265537195279
 31
0.0
  0
LINE
  5
1E3
330
2
100
AcDbEntity
  8
OUTLINE
  6
CONTINUOUS
 48
25.4
100
AcDbLine
 10
204.2422933369983
 20
457.1265537195279
 30
0.0
 11
204.2006425279982
 21
457.1335278015281
 31
0.0
  0
LINE
  5
1E4
330
2
100
AcDbEntity
  8
OUTLINE
  6
CONTINUOUS
 48
25.4
100
AcDbLine
 10
204.2006425279982
 20
457.551757205528
 30
0.0
 11
204.2006425279982
 21
457.1335278015281
 31
0.0
  0
LINE
  5
1E5
330
2
100
AcDbEntity
  8
OUTLINE
  6
CONTINUOUS
 48
25.4
100
AcDbLine
 10
204.1558219189981
 20
457.5569688980281
 30
0.0
 11
204.1558219189981
 21
457.2046321155278
 31
0.0
  0
LINE
  5
1E6
330
2
100
AcDbEntity
  8
OUTLINE
  6
CONTINUOUS
 48
25.4
100
AcDbLine
 10
204.1078018554983
 20
457.5603922710278
 30
0.0
 11
204.1078018554983
 21
457.257815825528
 31
0.0
  0
LINE
  5
1E7
330
2
100
AcDbEntity
  8
OUTLINE
  6
CONTINUOUS
 48
25.4
100
AcDbLine
 10
204.0565526824983
 20
457.5617785080281
 30
0.0
 11
204.0565526824983
 21
457.2846865010281
 31
0.0
  0
LINE
  5
1E8
330
2
100
AcDbEntity
  8
OUTLINE
  6
CONTINUOUS
 48
25.4
100
AcDbLine
 10
204.0020447464983
 20
457.5608782430281
 30
0.0
 11
204.0020447464983
 21
457.2988758755278
 31
0.0
  0
LINE
  5
1E9
330
2
100
AcDbEntity
  8
OUTLINE
  6
CONTINUOUS
 48
25.4
100
AcDbLine
 10
203.6179614789983
 20
457.1455679120279
 30
0.0
 11
203.1531873569983
 21
457.1455679120279
 31
0.0
  0
LINE
  5
1EA
330
2
100
AcDbEntity
  8
OUTLINE
  6
CONTINUOUS
 48
25.4
100
AcDbLine
 10
204.1864440699983
 20
457.0959717970281
 30
0.0
 11
204.1864440699983
 21
456.7121246410281
 31
0.0
  0
LINE
  5
1EB
330
2
100
AcDbEntity
  8
OUTLINE
  6
CONTINUOUS
 48
25.4
100
AcDbLine
 10
204.1864440699983
 20
456.7121246410281
 30
0.0
 11
204.1847478194983
 21
456.6854848440278
 31
0.0
  0
LINE
  5
1EC
330
2
100
AcDbEntity
  8
OUTLINE
  6
CONTINUOUS
 48
25.4
100
AcDbLine
 10
204.1847478194983
 20
457.0670017395278
 30
0.0
 11
204.1847478194983
 21
456.6854848440278
 31
0.0
  0
LINE
  5
1ED
330
2
100
AcDbEntity
  8
OUTLINE
  6
CONTINUOUS
 48
25.4
100
AcDbLine
 10
204.1847478194983
 20
456.6854848440278
 30
0.0
 11
204.1801803034982
 21
456.662501447028
 31
0.0
  0
LINE
  5
1EE
330
2
100
AcDbEntity
  8
OUTLINE
  6
CONTINUOUS
 48
25.4
100
AcDbLine
 10
204.1801803034982
 20
457.0419369065278
 30
0.0
 11
204.1801803034982
 21
456.662501447028
 31
0.0
  0
LINE
  5
1EF
330
2
100
AcDbEntity
  8
OUTLINE
  6
CONTINUOUS
 48
25.4
100
AcDbLine
 10
204.1801803034982
 20
456.662501447028
 30
0.0
 11
204.1733651264983
 21
456.6427161535282
 31
0.0
  0
LINE
  5
1F0
330
2
100
AcDbEntity
  8
OUTLINE
  6
CONTINUOUS
 48
25.4
100
AcDbLine
 10
204.1733651264983
 20
457.0202960255279
 30
0.0
 11
204.1733651264983
 21
456.6427161535282
 31
0.0
  0
LINE
  5
1F1
330
2
100
AcDbEntity
  8
OUTLINE
  6
CONTINUOUS
 48
25.4
100
AcDbLine
 10
204.1733651264983
 20
456.6427161535282
 30
0.0
 11
204.1649258914982
 21
456.625670668028
 31
0.0
  0
LINE
  5
1F2
330
2
100
AcDbEntity
  8
OUTLINE
  6
CONTINUOUS
 48
25.4
100
AcDbLine
 10
204.1649258914982
 20
457.0015961455281
 30
0.0
 11
204.1649258914982
 21
456.625670668028
 31
0.0
  0
LINE
  5
1F3
330
2
100
AcDbEntity
  8
OUTLINE
  6
CONTINUOUS
 48
25.4
100
AcDbLine
 10
204.1649258914982
 20
456.625670668028
 30
0.0
 11
204.1554862039983
 21
456.6109066945279
 31
0.0
  0
LINE
  5
1F4
330
2
100
AcDbEntity
  8
OUTLINE
  6
CONTINUOUS
 48
25.4
100
AcDbLine
 10
204.1554862039983
 20
456.985353083028
 30
0.0
 11
204.1554862039983
 21
456.6109066945279
 31
0.0
  0
LINE
  5
1F5
330
2
100
AcDbEntity
  8
OUTLINE
  6
CONTINUOUS
 48
25.4
100
AcDbLine
 10
204.1554862039983
 20
456.6109066945279
 30
0.0
 11
204.1456696679983
 21
456.5979659370278
 31
0.0
  0
LINE
  5
1F6
330
2
100
AcDbEntity
  8
OUTLINE
  6
CONTINUOUS
 48
25.4
100
AcDbLine
 10
204.1456696679983
 20
456.971081777528
 30
0.0
 11
204.1456696679983
 21
456.5979659370278
 31
0.0
  0
LINE
  5
1F7
330
2
100
AcDbEntity
  8
OUTLINE
  6
CONTINUOUS
 48
25.4
100
AcDbLine
 10
204.1456696679983
 20
456.5979659370278
 30
0.0
 11
204.1329903169983
 21
456.5832417305282
 31
0.0
  0
LINE
  5
1F8
330
2
100
AcDbEntity
  8
OUTLINE
  6
CONTINUOUS
 48
25.4
100
AcDbLine
 10
204.1329903169983
 20
456.954808926528
 30
0.0
 11
204.1329903169983
 21
456.5832417305282
 31
0.0
  0
LINE
  5
1F9
330
2
100
AcDbEntity
  8
OUTLINE
  6
CONTINUOUS
 48
25.4
100
AcDbLine
 10
204.1329903169983
 20
456.5832417305282
 30
0.0
 11
204.1196562824983
 21
456.570391998528
 31
0.0
  0
LINE
  5
1FA
330
2
100
AcDbEntity
  8
OUTLINE
  6
CONTINUOUS
 48
25.4
100
AcDbLine
 10
204.1196562824983
 20
456.9405587525281
 30
0.0
 11
204.1196562824983
 21
456.570391998528
 31
0.0
  0
LINE
  5
1FB
330
2
100
AcDbEntity
  8
OUTLINE
  6
CONTINUOUS
 48
25.4
100
AcDbLine
 10
204.1196562824983
 20
456.570391998528
 30
0.0
 11
204.1045976659982
 21
456.5589944790279
 31
0.0
  0
LINE
  5
1FC
330
2
100
AcDbEntity
  8
OUTLINE
  6
CONTINUOUS
 48
25.4
100
AcDbLine
 10
204.1045976659982
 20
456.9278519780278
 30
0.0
 11
204.1045976659982
 21
456.5589944790279
 31
0.0
  0
LINE
  5
1FD
330
2
100
AcDbEntity
  8
OUTLINE
  6
CONTINUOUS
 48
25.4
100
AcDbLine
 10
204.1045976659982
 20
456.5589944790279
 30
0.0
 11
204.0915283379983
 21
456.5511453365278
 31
0.0
  0
LINE
  5
1FE
330
2
100
AcDbEntity
  8
OUTLINE
  6
CONTINUOUS
 48
25.4
100
AcDbLine
 10
204.0915283379983
 20
456.9190456695279
 30
0.0
 11
204.0915283379983
 21
456.5511453365278
 31
0.0
  0
LINE
  5
1FF
330
2
100
AcDbEntity
  8
OUTLINE
  6
CONTINUOUS
 48
25.4
100
AcDbLine
 10
204.0915283379983
 20
456.5511453365278
 30
0.0
 11
204.0764357524983
 21
456.5436974000282
 31
0.0
  0
LINE
  5
200
330
2
100
AcDbEntity
  8
OUTLINE
  6
CONTINUOUS
 48
25.4
100
AcDbLine
 10
204.0764357524983
 20
456.9106338810279
 30
0.0
 11
204.0764357524983
 21
456.5436974000282
 31
0.0
  0
LINE
  5
201
330
2
100
AcDbEntity
  8
OUTLINE
  6
CONTINUOUS
 48
25.4
100
AcDbLine
 10
204.0764357524983
 20
456.5436974000282
 30
0.0
 11
204.0599601794983
 21
456.536934506528
 31
0.0
  0
LINE
  5
202
330
2
100
AcDbEntity
  8
OUTLINE
  6
CONTINUOUS
 48
25.4
100
AcDbLine
 10
204.0599601794983
 20
456.902937962528
 30
0.0
 11
204.0599601794983
 21
456.536934506528
 31
0.0
  0
LINE
  5
203
330
2
100
AcDbEntity
  8
OUTLINE
  6
CONTINUOUS
 48
25.4
100
AcDbLine
 10
204.0599601794983
 20
456.536934506528
 30
0.0
 11
204.0412447204983
 21
456.5306369035281
 31
0.0
  0
LINE
  5
204
330
2
100
AcDbEntity
  8
OUTLINE
  6
CONTINUOUS
 48
25.4
100
AcDbLine
 10
204.0412447204983
 20
456.8957008760279
 30
0.0
 11
204.0412447204983
 21
456.5306369035281
 31
0.0
  0
LINE
  5
205
330
2
100
AcDbEntity
  8
OUTLINE
  6
CONTINUOUS
 48
25.4
100
AcDbLine
 10
204.0412447204983
 20
456.5306369035281
 30
0.0
 11
204.0202606899983
 21
456.5250705610281
 31
0.0
  0
LINE
  5
206
330
2
100
AcDbEntity
  8
OUTLINE
  6
CONTINUOUS
 48
25.4
100
AcDbLine
 10
204.0202606899983
 20
456.8892109985279
 30
0.0
 11
204.0202606899983
 21
456.5250705610281
 31
0.0
  0
LINE
  5
207
330
2
100
AcDbEntity
  8
OUTLINE
  6
CONTINUOUS
 48
25.4
100
AcDbLine
 10
203.9969794029983
 20
456.883756637528
 30
0.0
 11
203.9969794029983
 21
456.5205014510281
 31
0.0
  0
LINE
  5
208
330
2
100
AcDbEntity
  8
OUTLINE
  6
CONTINUOUS
 48
25.4
100
AcDbLine
 10
203.9713721744981
 20
456.8796259725282
 30
0.0
 11
203.9713721744981
 21
456.5710131395282
 31
0.0
  0
LINE
  5
209
330
2
100
AcDbEntity
  8
OUTLINE
  6
CONTINUOUS
 48
25.4
100
AcDbLine
 10
203.9434103189983
 20
456.8771069735279
 30
0.0
 11
203.9434103189983
 21
456.599464180028
 31
0.0
  0
LINE
  5
20A
330
2
100
AcDbEntity
  8
OUTLINE
  6
CONTINUOUS
 48
25.4
100
AcDbLine
 10
204.5267872829982
 20
456.220142236028
 30
0.0
 11
204.3092211979983
 21
456.4044478780281
 31
0.0
  0
LINE
  5
20B
330
2
100
AcDbEntity
  8
OUTLINE
  6
CONTINUOUS
 48
25.4
100
AcDbLine
 10
204.3092211979983
 20
456.7629028270282
 30
0.0
 11
204.3092211979983
 21
456.4044478780281
 31
0.0
  0
LINE
  5
20C
330
2
100
AcDbEntity
  8
OUTLINE
  6
CONTINUOUS
 48
25.4
100
AcDbLine
 10
205.8622151594981
 20
454.3077984410281
 30
0.0
 11
206.0055725419981
 21
454.301929089028
 31
0.0
  0
LINE
  5
20D
330
2
100
AcDbEntity
  8
OUTLINE
  6
CONTINUOUS
 48
25.4
100
AcDbLine
 10
205.7188579829982
 20
454.3223948265278
 30
0.0
 11
205.8622151594981
 21
454.3077984410281
 31
0.0
  0
LINE
  5
20E
330
2
100
AcDbEntity
  8
OUTLINE
  6
CONTINUOUS
 48
25.4
100
AcDbLine
 10
205.5755012004981
 20
454.3443264510281
 30
0.0
 11
205.7188579829982
 21
454.3223948265278
 31
0.0
  0
LINE
  5
20F
330
2
100
AcDbEntity
  8
OUTLINE
  6
CONTINUOUS
 48
25.4
100
AcDbLine
 10
205.4321449989982
 20
454.3722002495281
 30
0.0
 11
205.5755012004981
 21
454.3443264510281
 31
0.0
  0
LINE
  5
210
330
2
100
AcDbEntity
  8
OUTLINE
  6
CONTINUOUS
 48
25.4
100
AcDbLine
 10
205.2887895664983
 20
454.4046236460281
 30
0.0
 11
205.4321449989982
 21
454.3722002495281
 31
0.0
  0
LINE
  5
211
330
2
100
AcDbEntity
  8
OUTLINE
  6
CONTINUOUS
 48
25.4
100
AcDbLine
 10
205.0498660629983
 20
454.4649969845282
 30
0.0
 11
205.2887895664983
 21
454.4046236460281
 31
0.0
  0
LINE
  5
212
330
2
100
AcDbEntity
  8
OUTLINE
  6
CONTINUOUS
 48
25.4
100
AcDbLine
 10
204.8109460839981
 20
454.5277273585279
 30
0.0
 11
205.0498660629983
 21
454.4649969845282
 31
0.0
  0
LINE
  5
213
330
2
100
AcDbEntity
  8
OUTLINE
  6
CONTINUOUS
 48
25.4
100
AcDbLine
 10
204.5720304979982
 20
454.586424893028
 30
0.0
 11
204.8109460839981
 21
454.5277273585279
 31
0.0
  0
LINE
  5
214
330
2
100
AcDbEntity
  8
OUTLINE
  6
CONTINUOUS
 48
25.4
100
AcDbLine
 10
204.4286836159983
 20
454.617060386528
 30
0.0
 11
204.5720304979982
 21
454.586424893028
 31
0.0
  0
LINE
  5
215
330
2
100
AcDbEntity
  8
OUTLINE
  6
CONTINUOUS
 48
25.4
100
AcDbLine
 10
204.2853388154983
 20
454.642583634028
 30
0.0
 11
204.4286836159983
 21
454.617060386528
 31
0.0
  0
LINE
  5
216
330
2
100
AcDbEntity
  8
OUTLINE
  6
CONTINUOUS
 48
25.4
100
AcDbLine
 10
204.1419962839981
 20
454.661626354528
 30
0.0
 11
204.2853388154983
 21
454.642583634028
 31
0.0
  0
LINE
  5
217
330
2
100
AcDbEntity
  8
OUTLINE
  6
CONTINUOUS
 48
25.4
100
AcDbLine
 10
203.9986562089983
 20
454.6728205210278
 30
0.0
 11
204.1419962839981
 21
454.661626354528
 31
0.0
  0
LINE
  5
218
330
2
100
AcDbEntity
  8
OUTLINE
  6
CONTINUOUS
 48
25.4
100
AcDbLine
 10
203.8553187779983
 20
454.674796561528
 30
0.0
 11
203.9986562089983
 21
454.6728205210278
 31
0.0
  0
LINE
  5
219
330
2
100
AcDbEntity
  8
OUTLINE
  6
CONTINUOUS
 48
25.4
100
AcDbLine
 10
203.7700856264981
 20
454.671134505528
 30
0.0
 11
203.8553187779983
 21
454.674796561528
 31
0.0
  0
LINE
  5
21A
330
2
100
AcDbEntity
  8
OUTLINE
  6
CONTINUOUS
 48
25.4
100
AcDbLine
 10
203.6848532789983
 20
454.664015665528
 30
0.0
 11
203.7700856264981
 21
454.671134505528
 31
0.0
  0
LINE
  5
21B
330
2
100
AcDbEntity
  8
OUTLINE
  6
CONTINUOUS
 48
25.4
100
AcDbLine
 10
203.5996215389983
 20
454.6537276780279
 30
0.0
 11
203.6848532789983
 21
454.664015665528
 31
0.0
  0
LINE
  5
21C
330
2
100
AcDbEntity
  8
OUTLINE
  6
CONTINUOUS
 48
25.4
100
AcDbLine
 10
203.5143902084982
 20
454.640557783528
 30
0.0
 11
203.5996215389983
 21
454.6537276780279
 31
0.0
  0
LINE
  5
21D
330
2
100
AcDbEntity
  8
OUTLINE
  6
CONTINUOUS
 48
25.4
100
AcDbLine
 10
203.4291590904983
 20
454.624792989028
 30
0.0
 11
203.5143902084982
 21
454.640557783528
 31
0.0
  0
LINE
  5
21E
330
2
100
AcDbEntity
  8
OUTLINE
  6
CONTINUOUS
 48
25.4
100
AcDbLine
 10
203.3439279879981
 20
454.6067202125281
 30
0.0
 11
203.4291590904983
 21
454.624792989028
 31
0.0
  0
LINE
  5
21F
330
2
100
AcDbEntity
  8
OUTLINE
  6
CONTINUOUS
 48
25.4
100
AcDbLine
 10
203.2160809319983
 20
454.5759113385281
 30
0.0
 11
203.3439279879981
 21
454.6067202125281
 31
0.0
  0
LINE
  5
220
330
2
100
AcDbEntity
  8
OUTLINE
  6
CONTINUOUS
 48
25.4
100
AcDbLine
 10
203.0882328019983
 20
454.541524420528
 30
0.0
 11
203.2160809319983
 21
454.5759113385281
 31
0.0
  0
LINE
  5
221
330
2
100
AcDbEntity
  8
OUTLINE
  6
CONTINUOUS
 48
25.4
100
AcDbLine
 10
202.8457155559983
 20
454.6308339445281
 30
0.0
 11
203.0882328019983
 21
454.541524420528
 31
0.0
  0
LINE
  5
222
330
2
100
AcDbEntity
  8
OUTLINE
  6
CONTINUOUS
 48
25.4
100
AcDbLine
 10
203.0116089819983
 20
454.6801828285281
 30
0.0
 11
202.8457155559983
 21
454.6308339445281
 31
0.0
  0
LINE
  5
223
330
2
100
AcDbEntity
  8
OUTLINE
  6
CONTINUOUS
 48
25.4
100
AcDbLine
 10
203.1774989329983
 20
454.7259506275278
 30
0.0
 11
203.0116089819983
 21
454.6801828285281
 31
0.0
  0
LINE
  5
224
330
2
100
AcDbEntity
  8
OUTLINE
  6
CONTINUOUS
 48
25.4
100
AcDbLine
 10
203.2880910209982
 20
454.7534280700282
 30
0.0
 11
203.1774989329983
 21
454.7259506275278
 31
0.0
  0
LINE
  5
225
330
2
100
AcDbEntity
  8
OUTLINE
  6
CONTINUOUS
 48
25.4
100
AcDbLine
 10
203.3986826409981
 20
454.7777479315278
 30
0.0
 11
203.2880910209982
 21
454.7534280700282
 31
0.0
  0
LINE
  5
226
330
2
100
AcDbEntity
  8
OUTLINE
  6
CONTINUOUS
 48
25.4
100
AcDbLine
 10
203.5092742239982
 20
454.7982851370279
 30
0.0
 11
203.3986826409981
 21
454.7777479315278
 31
0.0
  0
LINE
  5
227
330
2
100
AcDbEntity
  8
OUTLINE
  6
CONTINUOUS
 48
25.4
100
AcDbLine
 10
203.6198662009983
 20
454.8144147835279
 30
0.0
 11
203.5092742239982
 21
454.7982851370279
 31
0.0
  0
LINE
  5
228
330
2
100
AcDbEntity
  8
OUTLINE
  6
CONTINUOUS
 48
25.4
100
AcDbLine
 10
203.7304590019981
 20
454.825511665528
 30
0.0
 11
203.6198662009983
 21
454.8144147835279
 31
0.0
  0
LINE
  5
229
330
2
100
AcDbEntity
  8
OUTLINE
  6
CONTINUOUS
 48
25.4
100
AcDbLine
 10
203.8410530579982
 20
454.8309497335281
 30
0.0
 11
203.7304590019981
 21
454.825511665528
 31
0.0
  0
LINE
  5
22A
330
2
100
AcDbEntity
  8
OUTLINE
  6
CONTINUOUS
 48
25.4
100
AcDbLine
 10
203.9853414134983
 20
454.8289635180281
 30
0.0
 11
203.8410530579982
 21
454.8309497335281
 31
0.0
  0
LINE
  5
22B
330
2
100
AcDbEntity
  8
OUTLINE
  6
CONTINUOUS
 48
25.4
100
AcDbLine
 10
204.1296324464981
 20
454.8176736195279
 30
0.0
 11
203.9853414134983
 21
454.8289635180281
 31
0.0
  0
LINE
  5
22C
330
2
100
AcDbEntity
  8
OUTLINE
  6
CONTINUOUS
 48
25.4
100
AcDbLine
 10
204.2739259669983
 20
454.7984727505278
 30
0.0
 11
204.1296324464981
 21
454.8176736195279
 31
0.0
  0
LINE
  5
22D
330
2
100
AcDbEntity
  8
OUTLINE
  6
CONTINUOUS
 48
25.4
100
AcDbLine
 10
204.4182217824983
 20
454.772752066028
 30
0.0
 11
204.2739259669983
 21
454.7984727505278
 31
0.0
  0
LINE
  5
22E
330
2
100
AcDbEntity
  8
OUTLINE
  6
CONTINUOUS
 48
25.4
100
AcDbLine
 10
204.5625197019981
 20
454.7419030155277
 30
0.0
 11
204.4182217824983
 21
454.772752066028
 31
0.0
  0
LINE
  5
22F
330
2
100
AcDbEntity
  8
OUTLINE
  6
CONTINUOUS
 48
25.4
100
AcDbLine
 10
204.8030203909982
 20
454.682876909028
 30
0.0
 11
204.5625197019981
 21
454.7419030155277
 31
0.0
  0
LINE
  5
230
330
2
100
AcDbEntity
  8
OUTLINE
  6
CONTINUOUS
 48
25.4
100
AcDbLine
 10
205.0435255074983
 20
454.6199460470282
 30
0.0
 11
204.8030203909982
 21
454.682876909028
 31
0.0
  0
LINE
  5
231
330
2
100
AcDbEntity
  8
OUTLINE
  6
CONTINUOUS
 48
25.4
100
AcDbLine
 10
205.2840341664982
 20
454.5596093665277
 30
0.0
 11
205.0435255074983
 21
454.6199460470282
 31
0.0
  0
LINE
  5
232
330
2
100
AcDbEntity
  8
OUTLINE
  6
CONTINUOUS
 48
25.4
100
AcDbLine
 10
205.4283406939982
 20
454.5273673945279
 30
0.0
 11
205.2840341664982
 21
454.5596093665277
 31
0.0
  0
LINE
  5
233
330
2
100
AcDbEntity
  8
OUTLINE
  6
CONTINUOUS
 48
25.4
100
AcDbLine
 10
205.5726479864983
 20
454.4998235805279
 30
0.0
 11
205.4283406939982
 21
454.5273673945279
 31
0.0
  0
LINE
  5
234
330
2
100
AcDbEntity
  8
OUTLINE
  6
CONTINUOUS
 48
25.4
100
AcDbLine
 10
205.7169558529983
 20
454.4783941715278
 30
0.0
 11
205.5726479864983
 21
454.4998235805279
 31
0.0
  0
LINE
  5
235
330
2
100
AcDbEntity
  8
OUTLINE
  6
CONTINUOUS
 48
25.4
100
AcDbLine
 10
205.8612641014982
 20
454.464495783528
 30
0.0
 11
205.7169558529983
 21
454.4783941715278
 31
0.0
  0
LINE
  5
236
330
2
100
AcDbEntity
  8
OUTLINE
  6
CONTINUOUS
 48
25.4
100
AcDbLine
 10
206.0055725419981
 20
454.4595435585281
 30
0.0
 11
205.8612641014982
 21
454.464495783528
 31
0.0
  0
LINE
  5
237
330
2
100
AcDbEntity
  8
OUTLINE
  6
CONTINUOUS
 48
25.4
100
AcDbLine
 10
206.1498809819981
 20
454.4644793250278
 30
0.0
 11
206.0055725419981
 21
454.4595435585281
 31
0.0
  0
LINE
  5
238
330
2
100
AcDbEntity
  8
OUTLINE
  6
CONTINUOUS
 48
25.4
100
AcDbLine
 10
206.2941892309983
 20
454.4783612550278
 30
0.0
 11
206.1498809819981
 21
454.4644793250278
 31
0.0
  0
LINE
  5
239
330
2
100
AcDbEntity
  8
OUTLINE
  6
CONTINUOUS
 48
25.4
100
AcDbLine
 10
206.4384970969983
 20
454.4997742085278
 30
0.0
 11
206.2941892309983
 21
454.4783612550278
 31
0.0
  0
LINE
  5
23A
330
2
100
AcDbEntity
  8
OUTLINE
  6
CONTINUOUS
 48
25.4
100
AcDbLine
 10
206.5828043894981
 20
454.5273015700279
 30
0.0
 11
206.4384970969983
 21
454.4997742085278
 31
0.0
  0
LINE
  5
23B
330
2
100
AcDbEntity
  8
OUTLINE
  6
CONTINUOUS
 48
25.4
100
AcDbLine
 10
206.7271109169983
 20
454.5595270930282
 30
0.0
 11
206.5828043894981
 21
454.5273015700279
 31
0.0
  0
LINE
  5
23C
330
2
100
AcDbEntity
  8
OUTLINE
  6
CONTINUOUS
 48
25.4
100
AcDbLine
 10
206.9676195759983
 20
454.619836365028
 30
0.0
 11
206.7271109169983
 21
454.5595270930282
 31
0.0
  0
LINE
  5
23D
330
2
100
AcDbEntity
  8
OUTLINE
  6
CONTINUOUS
 48
25.4
100
AcDbLine
 10
207.2081246929982
 20
454.6827398255278
 30
0.0
 11
206.9676195759983
 21
454.619836365028
 31
0.0
  0
LINE
  5
23E
330
2
100
AcDbEntity
  8
OUTLINE
  6
CONTINUOUS
 48
25.4
100
AcDbLine
 10
207.4486253819983
 20
454.7417385355281
 30
0.0
 11
207.2081246929982
 21
454.6827398255278
 31
0.0
  0
LINE
  5
23F
330
2
100
AcDbEntity
  8
OUTLINE
  6
CONTINUOUS
 48
25.4
100
AcDbLine
 10
207.5929233014983
 20
454.7725711485279
 30
0.0
 11
207.4486253819983
 21
454.7417385355281
 31
0.0
  0
LINE
  5
240
330
2
100
AcDbEntity
  8
OUTLINE
  6
CONTINUOUS
 48
25.4
100
AcDbLine
 10
207.7372191169983
 20
454.7982753930281
 30
0.0
 11
207.5929233014983
 21
454.7725711485279
 31
0.0
  0
LINE
  5
241
330
2
100
AcDbEntity
  8
OUTLINE
  6
CONTINUOUS
 48
25.4
100
AcDbLine
 10
207.8815126369983
 20
454.8174598190279
 30
0.0
 11
207.7372191169983
 21
454.7982753930281
 31
0.0
  0
LINE
  5
242
330
2
100
AcDbEntity
  8
OUTLINE
  6
CONTINUOUS
 48
25.4
100
AcDbLine
 10
208.0258036704983
 20
454.828733269028
 30
0.0
 11
207.8815126369983
 21
454.8174598190279
 31
0.0
  0
LINE
  5
243
330
2
100
AcDbEntity
  8
OUTLINE
  6
CONTINUOUS
 48
25.4
100
AcDbLine
 10
208.1700920259982
 20
454.8307030285279
 30
0.0
 11
208.0258036704983
 21
454.828733269028
 31
0.0
  0
LINE
  5
244
330
2
100
AcDbEntity
  8
OUTLINE
  6
CONTINUOUS
 48
25.4
100
AcDbLine
 10
208.2806860819983
 20
454.8252523405277
 30
0.0
 11
208.1700920259982
 21
454.8307030285279
 31
0.0
  0
LINE
  5
245
330
2
100
AcDbEntity
  8
OUTLINE
  6
CONTINUOUS
 48
25.4
100
AcDbLine
 10
208.3912788829983
 20
454.8141428325278
 30
0.0
 11
208.2806860819983
 21
454.8252523405277
 31
0.0
  0
LINE
  5
246
330
2
100
AcDbEntity
  8
OUTLINE
  6
CONTINUOUS
 48
25.4
100
AcDbLine
 10
208.5018708594983
 20
454.798000554028
 30
0.0
 11
208.3912788829983
 21
454.8141428325278
 31
0.0
  0
LINE
  5
247
330
2
100
AcDbEntity
  8
OUTLINE
  6
CONTINUOUS
 48
25.4
100
AcDbLine
 10
208.6124624419983
 20
454.777450709028
 30
0.0
 11
208.5018708594983
 21
454.798000554028
 31
0.0
  0
LINE
  5
248
330
2
100
AcDbEntity
  8
OUTLINE
  6
CONTINUOUS
 48
25.4
100
AcDbLine
 10
208.7230540614982
 20
454.7531182020281
 30
0.0
 11
208.6124624419983
 21
454.777450709028
 31
0.0
  0
LINE
  5
249
330
2
100
AcDbEntity
  8
OUTLINE
  6
CONTINUOUS
 48
25.4
100
AcDbLine
 10
208.8336461489983
 20
454.7256281070281
 30
0.0
 11
208.7230540614982
 21
454.7531182020281
 31
0.0
  0
LINE
  5
24A
330
2
100
AcDbEntity
  8
OUTLINE
  6
CONTINUOUS
 48
25.4
100
AcDbLine
 10
208.9995360979983
 20
454.6798413175278
 30
0.0
 11
208.8336461489983
 21
454.7256281070281
 31
0.0
  0
LINE
  5
24B
330
2
100
AcDbEntity
  8
OUTLINE
  6
CONTINUOUS
 48
25.4
100
AcDbLine
 10
209.1654295219983
 20
454.6304734290278
 30
0.0
 11
208.9995360979983
 21
454.6798413175278
 31
0.0
  0
LINE
  5
24C
330
2
100
AcDbEntity
  8
OUTLINE
  6
CONTINUOUS
 48
25.4
100
AcDbLine
 10
208.9229122819983
 20
454.5411915280281
 30
0.0
 11
209.1654295219983
 21
454.6304734290278
 31
0.0
  0
LINE
  5
24D
330
2
100
AcDbEntity
  8
OUTLINE
  6
CONTINUOUS
 48
25.4
100
AcDbLine
 10
208.7950641519983
 20
454.575593086028
 30
0.0
 11
208.9229122819983
 21
454.5411915280281
 31
0.0
  0
LINE
  5
24E
330
2
100
AcDbEntity
  8
OUTLINE
  6
CONTINUOUS
 48
25.4
100
AcDbLine
 10
208.6672170959983
 20
454.6064165910278
 30
0.0
 11
208.7950641519983
 21
454.575593086028
 31
0.0
  0
LINE
  5
24F
330
2
100
AcDbEntity
  8
OUTLINE
  6
CONTINUOUS
 48
25.4
100
AcDbLine
 10
208.5819859934983
 20
454.6244991165279
 30
0.0
 11
208.6672170959983
 21
454.6064165910278
 31
0.0
  0
LINE
  5
250
330
2
100
AcDbEntity
  8
OUTLINE
  6
CONTINUOUS
 48
25.4
100
AcDbLine
 10
208.4967548754983
 20
454.6402736560279
 30
0.0
 11
208.5819859934983
 21
454.6244991165279
 31
0.0
  0
LINE
  5
251
330
2
100
AcDbEntity
  8
OUTLINE
  6
CONTINUOUS
 48
25.4
100
AcDbLine
 10
208.4115235449981
 20
454.653453291528
 30
0.0
 11
208.4967548754983
 21
454.6402736560279
 31
0.0
  0
LINE
  5
252
330
2
100
AcDbEntity
  8
OUTLINE
  6
CONTINUOUS
 48
25.4
100
AcDbLine
 10
208.3262918044983
 20
454.6637510160279
 30
0.0
 11
208.4115235449981
 21
454.653453291528
 31
0.0
  0
LINE
  5
253
330
2
100
AcDbEntity
  8
OUTLINE
  6
CONTINUOUS
 48
25.4
100
AcDbLine
 10
208.2410594574983
 20
454.6708795895279
 30
0.0
 11
208.3262918044983
 21
454.6637510160279
 31
0.0
  0
LINE
  5
254
330
2
100
AcDbEntity
  8
OUTLINE
  6
CONTINUOUS
 48
25.4
100
AcDbLine
 10
208.1558263059983
 20
454.6745513750281
 30
0.0
 11
208.2410594574983
 21
454.6708795895279
 31
0.0
  0
LINE
  5
255
330
2
100
AcDbEntity
  8
OUTLINE
  6
CONTINUOUS
 48
25.4
100
AcDbLine
 10
208.0124888749983
 20
454.6725916890278
 30
0.0
 11
208.1558263059983
 21
454.6745513750281
 31
0.0
  0
LINE
  5
256
330
2
100
AcDbEntity
  8
OUTLINE
  6
CONTINUOUS
 48
25.4
100
AcDbLine
 10
207.8691487999983
 20
454.6614138695281
 30
0.0
 11
208.0124888749983
 21
454.6725916890278
 31
0.0
  0
LINE
  5
257
330
2
100
AcDbEntity
  8
OUTLINE
  6
CONTINUOUS
 48
25.4
100
AcDbLine
 10
207.7258062679983
 20
454.6423874905278
 30
0.0
 11
207.8691487999983
 21
454.6614138695281
 31
0.0
  0
LINE
  5
258
330
2
100
AcDbEntity
  8
OUTLINE
  6
CONTINUOUS
 48
25.4
100
AcDbLine
 10
207.5824614674981
 20
454.616880581528
 30
0.0
 11
207.7258062679983
 21
454.6423874905278
 31
0.0
  0
LINE
  5
259
330
2
100
AcDbEntity
  8
OUTLINE
  6
CONTINUOUS
 48
25.4
100
AcDbLine
 10
207.4391145854983
 20
454.5862614245279
 30
0.0
 11
207.5824614674981
 21
454.616880581528
 31
0.0
  0
LINE
  5
25A
330
2
100
AcDbEntity
  8
OUTLINE
  6
CONTINUOUS
 48
25.4
100
AcDbLine
 10
207.2001989994983
 20
454.5275911180281
 30
0.0
 11
207.4391145854983
 21
454.5862614245279
 31
0.0
  0
LINE
  5
25B
330
2
100
AcDbEntity
  8
OUTLINE
  6
CONTINUOUS
 48
25.4
100
AcDbLine
 10
206.9612790204983
 20
454.4648879755278
 30
0.0
 11
207.2001989994983
 21
454.5275911180281
 31
0.0
  0
LINE
  5
25C
330
2
100
AcDbEntity
  8
OUTLINE
  6
CONTINUOUS
 48
25.4
100
AcDbLine
 10
206.7223555174983
 20
454.4045418775281
 30
0.0
 11
206.9612790204983
 21
454.4648879755278
 31
0.0
  0
LINE
  5
25D
330
2
100
AcDbEntity
  8
OUTLINE
  6
CONTINUOUS
 48
25.4
100
AcDbLine
 10
206.5790000849981
 20
454.372134829028
 30
0.0
 11
206.7223555174983
 21
454.4045418775281
 31
0.0
  0
LINE
  5
25E
330
2
100
AcDbEntity
  8
OUTLINE
  6
CONTINUOUS
 48
25.4
100
AcDbLine
 10
206.4356438834983
 20
454.3442773820281
 30
0.0
 11
206.5790000849981
 21
454.372134829028
 31
0.0
  0
LINE
  5
25F
330
2
100
AcDbEntity
  8
OUTLINE
  6
CONTINUOUS
 48
25.4
100
AcDbLine
 10
206.2922871004983
 20
454.3223621120279
 30
0.0
 11
206.4356438834983
 21
454.3442773820281
 31
0.0
  0
LINE
  5
260
330
2
100
AcDbEntity
  8
OUTLINE
  6
CONTINUOUS
 48
25.4
100
AcDbLine
 10
206.1489299244982
 20
454.3077820830281
 30
0.0
 11
206.2922871004983
 21
454.3223621120279
 31
0.0
  0
LINE
  5
261
330
2
100
AcDbEntity
  8
OUTLINE
  6
CONTINUOUS
 48
25.4
100
AcDbLine
 10
206.0055725419981
 20
454.301929089028
 30
0.0
 11
206.1489299244982
 21
454.3077820830281
 31
0.0
  0
LINE
  5
262
330
2
100
AcDbEntity
  8
OUTLINE
  6
CONTINUOUS
 48
25.4
100
AcDbLine
 10
208.9995360979983
 20
454.6798413175278
 30
0.0
 11
208.9995360979983
 21
454.569400326528
 31
0.0
  0
LINE
  5
263
330
2
100
AcDbEntity
  8
OUTLINE
  6
CONTINUOUS
 48
25.4
100
AcDbLine
 10
208.9920138944981
 20
454.566631053028
 30
0.0
 11
208.8336461489983
 21
454.600910779528
 31
0.0
  0
LINE
  5
264
330
2
100
AcDbEntity
  8
OUTLINE
  6
CONTINUOUS
 48
25.4
100
AcDbLine
 10
208.8336461489983
 20
454.7256281070281
 30
0.0
 11
208.8336461489983
 21
454.600910779528
 31
0.0
  0
LINE
  5
265
330
2
100
AcDbEntity
  8
OUTLINE
  6
CONTINUOUS
 48
25.4
100
AcDbLine
 10
208.8336461489983
 20
454.600910779528
 30
0.0
 11
208.7230540614982
 21
454.622332593528
 31
0.0
  0
LINE
  5
266
330
2
100
AcDbEntity
  8
OUTLINE
  6
CONTINUOUS
 48
25.4
100
AcDbLine
 10
208.7230540614982
 20
454.7531182020281
 30
0.0
 11
208.7230540614982
 21
454.622332593528
 31
0.0
  0
LINE
  5
267
330
2
100
AcDbEntity
  8
OUTLINE
  6
CONTINUOUS
 48
25.4
100
AcDbLine
 10
208.7230540614982
 20
454.622332593528
 30
0.0
 11
208.6124624419983
 21
454.641094775528
 31
0.0
  0
LINE
  5
268
330
2
100
AcDbEntity
  8
OUTLINE
  6
CONTINUOUS
 48
25.4
100
AcDbLine
 10
208.6124624419983
 20
454.777450709028
 30
0.0
 11
208.6124624419983
 21
454.641094775528
 31
0.0
  0
LINE
  5
269
330
2
100
AcDbEntity
  8
OUTLINE
  6
CONTINUOUS
 48
25.4
100
AcDbLine
 10
208.6124624419983
 20
454.641094775528
 30
0.0
 11
208.5018708594983
 21
454.6566434620278
 31
0.0
  0
LINE
  5
26A
330
2
100
AcDbEntity
  8
OUTLINE
  6
CONTINUOUS
 48
25.4
100
AcDbLine
 10
208.5018708594983
 20
454.798000554028
 30
0.0
 11
208.5018708594983
 21
454.6566434620278
 31
0.0
  0
LINE
  5
26B
330
2
100
AcDbEntity
  8
OUTLINE
  6
CONTINUOUS
 48
25.4
100
AcDbLine
 10
208.5018708594983
 20
454.6566434620278
 30
0.0
 11
208.3912788829983
 21
454.668424790528
 31
0.0
  0
LINE
  5
26C
330
2
100
AcDbEntity
  8
OUTLINE
  6
CONTINUOUS
 48
25.4
100
AcDbLine
 10
208.3912788829983
 20
454.8141428325278
 30
0.0
 11
208.3912788829983
 21
454.668424790528
 31
0.0
  0
LINE
  5
26D
330
2
100
AcDbEntity
  8
OUTLINE
  6
CONTINUOUS
 48
25.4
100
AcDbLine
 10
208.3912788829983
 20
454.668424790528
 30
0.0
 11
208.2806860819983
 21
454.6758848975279
 31
0.0
  0
LINE
  5
26E
330
2
100
AcDbEntity
  8
OUTLINE
  6
CONTINUOUS
 48
25.4
100
AcDbLine
 10
208.2806860819983
 20
454.8252523405277
 30
0.0
 11
208.2806860819983
 21
454.6758848975279
 31
0.0
  0
LINE
  5
26F
330
2
100
AcDbEntity
  8
OUTLINE
  6
CONTINUOUS
 48
25.4
100
AcDbLine
 10
208.2806860819983
 20
454.6758848975279
 30
0.0
 11
208.1700920259982
 21
454.6784699200278
 31
0.0
  0
LINE
  5
270
330
2
100
AcDbEntity
  8
OUTLINE
  6
CONTINUOUS
 48
25.4
100
AcDbLine
 10
208.1700920259982
 20
454.8307030285279
 30
0.0
 11
208.1700920259982
 21
454.6784699200278
 31
0.0
  0
LINE
  5
271
330
2
100
AcDbEntity
  8
OUTLINE
  6
CONTINUOUS
 48
25.4
100
AcDbLine
 10
208.1700920259982
 20
454.6784699200278
 30
0.0
 11
208.0258036704983
 21
454.674006584028
 31
0.0
  0
LINE
  5
272
330
2
100
AcDbEntity
  8
OUTLINE
  6
CONTINUOUS
 48
25.4
100
AcDbLine
 10
208.0258036704983
 20
454.828733269028
 30
0.0
 11
208.0258036704983
 21
454.674006584028
 31
0.0
  0
LINE
  5
273
330
2
100
AcDbEntity
  8
OUTLINE
  6
CONTINUOUS
 48
25.4
100
AcDbLine
 10
208.0258036704983
 20
454.674006584028
 30
0.0
 11
207.9812434259983
 21
454.6701551340281
 31
0.0
  0
LINE
  5
274
330
2
100
AcDbEntity
  8
OUTLINE
  6
CONTINUOUS
 48
25.4
100
AcDbLine
 10
207.8815126369983
 20
454.8174598190279
 30
0.0
 11
207.8815126369983
 21
454.662378015028
 31
0.0
  0
LINE
  5
275
330
2
100
AcDbEntity
  8
OUTLINE
  6
CONTINUOUS
 48
25.4
100
AcDbLine
 10
207.7372191169983
 20
454.7982753930281
 30
0.0
 11
207.7372191169983
 21
454.6439023595279
 31
0.0
  0
LINE
  5
276
330
2
100
AcDbEntity
  8
OUTLINE
  6
CONTINUOUS
 48
25.4
100
AcDbLine
 10
207.5929233014983
 20
454.7725711485279
 30
0.0
 11
207.5929233014983
 21
454.6187421700279
 31
0.0
  0
LINE
  5
277
330
2
100
AcDbEntity
  8
OUTLINE
  6
CONTINUOUS
 48
25.4
100
AcDbLine
 10
207.4573849639982
 20
454.590164010528
 30
0.0
 11
207.4486253819983
 21
454.5883974620279
 31
0.0
  0
LINE
  5
278
330
2
100
AcDbEntity
  8
OUTLINE
  6
CONTINUOUS
 48
25.4
100
AcDbLine
 10
207.4486253819983
 20
454.7417385355281
 30
0.0
 11
207.4486253819983
 21
454.5883974620279
 31
0.0
  0
LINE
  5
279
330
2
100
AcDbEntity
  8
OUTLINE
  6
CONTINUOUS
 48
25.4
100
AcDbLine
 10
207.4486253819983
 20
454.5883974620279
 30
0.0
 11
207.4411469964982
 21
454.5866955510279
 31
0.0
  0
LINE
  5
27A
330
2
100
AcDbEntity
  8
OUTLINE
  6
CONTINUOUS
 48
25.4
100
AcDbLine
 10
207.4375358794983
 20
454.5858737425279
 30
0.0
 11
207.2081246929982
 21
454.533664963028
 31
0.0
  0
LINE
  5
27B
330
2
100
AcDbEntity
  8
OUTLINE
  6
CONTINUOUS
 48
25.4
100
AcDbLine
 10
207.2081246929982
 20
454.6827398255278
 30
0.0
 11
207.2081246929982
 21
454.533664963028
 31
0.0
  0
LINE
  5
27C
330
2
100
AcDbEntity
  8
OUTLINE
  6
CONTINUOUS
 48
25.4
100
AcDbLine
 10
207.2081246929982
 20
454.533664963028
 30
0.0
 11
206.9676195759983
 21
454.4760884040281
 31
0.0
  0
LINE
  5
27D
330
2
100
AcDbEntity
  8
OUTLINE
  6
CONTINUOUS
 48
25.4
100
AcDbLine
 10
206.9676195759983
 20
454.619836365028
 30
0.0
 11
206.9676195759983
 21
454.4760884040281
 31
0.0
  0
LINE
  5
27E
330
2
100
AcDbEntity
  8
OUTLINE
  6
CONTINUOUS
 48
25.4
100
AcDbLine
 10
206.9676195759983
 20
454.4760884040281
 30
0.0
 11
206.7271109169983
 21
454.421373851528
 31
0.0
  0
LINE
  5
27F
330
2
100
AcDbEntity
  8
OUTLINE
  6
CONTINUOUS
 48
25.4
100
AcDbLine
 10
206.7271109169983
 20
454.5595270930282
 30
0.0
 11
206.7271109169983
 21
454.421373851528
 31
0.0
  0
LINE
  5
280
330
2
100
AcDbEntity
  8
OUTLINE
  6
CONTINUOUS
 48
25.4
100
AcDbLine
 10
206.7271109169983
 20
454.421373851528
 30
0.0
 11
206.5828043894981
 21
454.3922926075278
 31
0.0
  0
LINE
  5
281
330
2
100
AcDbEntity
  8
OUTLINE
  6
CONTINUOUS
 48
25.4
100
AcDbLine
 10
206.5828043894981
 20
454.5273015700279
 30
0.0
 11
206.5828043894981
 21
454.3922926075278
 31
0.0
  0
LINE
  5
282
330
2
100
AcDbEntity
  8
OUTLINE
  6
CONTINUOUS
 48
25.4
100
AcDbLine
 10
206.5828043894981
 20
454.3922926075278
 30
0.0
 11
206.4384970969983
 21
454.367528380528
 31
0.0
  0
LINE
  5
283
330
2
100
AcDbEntity
  8
OUTLINE
  6
CONTINUOUS
 48
25.4
100
AcDbLine
 10
206.4384970969983
 20
454.4997742085278
 30
0.0
 11
206.4384970969983
 21
454.367528380528
 31
0.0
  0
LINE
  5
284
330
2
100
AcDbEntity
  8
OUTLINE
  6
CONTINUOUS
 48
25.4
100
AcDbLine
 10
206.4384970969983
 20
454.367528380528
 30
0.0
 11
206.2941892309983
 21
454.3483136820278
 31
0.0
  0
LINE
  5
285
330
2
100
AcDbEntity
  8
OUTLINE
  6
CONTINUOUS
 48
25.4
100
AcDbLine
 10
206.2941892309983
 20
454.4783612550278
 30
0.0
 11
206.2941892309983
 21
454.3483136820278
 31
0.0
  0
LINE
  5
286
330
2
100
AcDbEntity
  8
OUTLINE
  6
CONTINUOUS
 48
25.4
100
AcDbLine
 10
206.2941892309983
 20
454.3483136820278
 30
0.0
 11
206.1498809819981
 21
454.3358810215281
 31
0.0
  0
LINE
  5
287
330
2
100
AcDbEntity
  8
OUTLINE
  6
CONTINUOUS
 48
25.4
100
AcDbLine
 10
206.1498809819981
 20
454.4644793250278
 30
0.0
 11
206.1498809819981
 21
454.3358810215281
 31
0.0
  0
LINE
  5
288
330
2
100
AcDbEntity
  8
OUTLINE
  6
CONTINUOUS
 48
25.4
100
AcDbLine
 10
206.1498809819981
 20
454.3358810215281
 30
0.0
 11
206.0055725419981
 21
454.3314629100278
 31
0.0
  0
LINE
  5
289
330
2
100
AcDbEntity
  8
OUTLINE
  6
CONTINUOUS
 48
25.4
100
AcDbLine
 10
206.0055725419981
 20
454.4595435585281
 30
0.0
 11
206.0055725419981
 21
454.3314629100278
 31
0.0
  0
LINE
  5
28A
330
2
100
AcDbEntity
  8
OUTLINE
  6
CONTINUOUS
 48
25.4
100
AcDbLine
 10
206.0055725419981
 20
454.3314629100278
 30
0.0
 11
205.8612641014982
 21
454.3358810215281
 31
0.0
  0
LINE
  5
28B
330
2
100
AcDbEntity
  8
OUTLINE
  6
CONTINUOUS
 48
25.4
100
AcDbLine
 10
205.8612641014982
 20
454.464495783528
 30
0.0
 11
205.8612641014982
 21
454.3358810215281
 31
0.0
  0
LINE
  5
28C
330
2
100
AcDbEntity
  8
OUTLINE
  6
CONTINUOUS
 48
25.4
100
AcDbLine
 10
205.8612641014982
 20
454.3358810215281
 30
0.0
 11
205.7169558529983
 21
454.3483136820278
 31
0.0
  0
LINE
  5
28D
330
2
100
AcDbEntity
  8
OUTLINE
  6
CONTINUOUS
 48
25.4
100
AcDbLine
 10
205.7169558529983
 20
454.4783941715278
 30
0.0
 11
205.7169558529983
 21
454.3483136820278
 31
0.0
  0
LINE
  5
28E
330
2
100
AcDbEntity
  8
OUTLINE
  6
CONTINUOUS
 48
25.4
100
AcDbLine
 10
205.7169558529983
 20
454.3483136820278
 30
0.0
 11
205.5726479864983
 21
454.367528380528
 31
0.0
  0
LINE
  5
28F
330
2
100
AcDbEntity
  8
OUTLINE
  6
CONTINUOUS
 48
25.4
100
AcDbLine
 10
205.5726479864983
 20
454.4998235805279
 30
0.0
 11
205.5726479864983
 21
454.367528380528
 31
0.0
  0
LINE
  5
290
330
2
100
AcDbEntity
  8
OUTLINE
  6
CONTINUOUS
 48
25.4
100
AcDbLine
 10
205.5726479864983
 20
454.367528380528
 30
0.0
 11
205.4283406939982
 21
454.3922926075278
 31
0.0
  0
LINE
  5
291
330
2
100
AcDbEntity
  8
OUTLINE
  6
CONTINUOUS
 48
25.4
100
AcDbLine
 10
205.4283406939982
 20
454.5273673945279
 30
0.0
 11
205.4283406939982
 21
454.3922926075278
 31
0.0
  0
LINE
  5
292
330
2
100
AcDbEntity
  8
OUTLINE
  6
CONTINUOUS
 48
25.4
100
AcDbLine
 10
205.4283406939982
 20
454.3922926075278
 30
0.0
 11
205.2840341664982
 21
454.421373851528
 31
0.0
  0
LINE
  5
293
330
2
100
AcDbEntity
  8
OUTLINE
  6
CONTINUOUS
 48
25.4
100
AcDbLine
 10
205.2840341664982
 20
454.5596093665277
 30
0.0
 11
205.2840341664982
 21
454.421373851528
 31
0.0
  0
LINE
  5
294
330
2
100
AcDbEntity
  8
OUTLINE
  6
CONTINUOUS
 48
25.4
100
AcDbLine
 10
205.2840341664982
 20
454.421373851528
 30
0.0
 11
205.0435255074983
 21
454.4760884040281
 31
0.0
  0
LINE
  5
295
330
2
100
AcDbEntity
  8
OUTLINE
  6
CONTINUOUS
 48
25.4
100
AcDbLine
 10
205.0435255074983
 20
454.6199460470282
 30
0.0
 11
205.0435255074983
 21
454.4760884040281
 31
0.0
  0
LINE
  5
296
330
2
100
AcDbEntity
  8
OUTLINE
  6
CONTINUOUS
 48
25.4
100
AcDbLine
 10
205.0435255074983
 20
454.4760884040281
 30
0.0
 11
204.8030203909982
 21
454.533664963028
 31
0.0
  0
LINE
  5
297
330
2
100
AcDbEntity
  8
OUTLINE
  6
CONTINUOUS
 48
25.4
100
AcDbLine
 10
204.8030203909982
 20
454.682876909028
 30
0.0
 11
204.8030203909982
 21
454.533664963028
 31
0.0
  0
LINE
  5
298
330
2
100
AcDbEntity
  8
OUTLINE
  6
CONTINUOUS
 48
25.4
100
AcDbLine
 10
204.8030203909982
 20
454.533664963028
 30
0.0
 11
204.5826277634982
 21
454.5838213235279
 31
0.0
  0
LINE
  5
299
330
2
100
AcDbEntity
  8
OUTLINE
  6
CONTINUOUS
 48
25.4
100
AcDbLine
 10
204.5625197019981
 20
454.7419030155277
 30
0.0
 11
204.5625197019981
 21
454.5883974620279
 31
0.0
  0
LINE
  5
29A
330
2
100
AcDbEntity
  8
OUTLINE
  6
CONTINUOUS
 48
25.4
100
AcDbLine
 10
204.4182217824983
 20
454.772752066028
 30
0.0
 11
204.4182217824983
 21
454.6189231675278
 31
0.0
  0
LINE
  5
29B
330
2
100
AcDbEntity
  8
OUTLINE
  6
CONTINUOUS
 48
25.4
100
AcDbLine
 10
204.2739259669983
 20
454.7984727505278
 30
0.0
 11
204.2739259669983
 21
454.644099804028
 31
0.0
  0
LINE
  5
29C
330
2
100
AcDbEntity
  8
OUTLINE
  6
CONTINUOUS
 48
25.4
100
AcDbLine
 10
204.1296324464981
 20
454.8176736195279
 30
0.0
 11
204.1296324464981
 21
454.6625919100281
 31
0.0
  0
LINE
  5
29D
330
2
100
AcDbEntity
  8
OUTLINE
  6
CONTINUOUS
 48
25.4
100
AcDbLine
 10
204.0028821579983
 20
454.6724904950278
 30
0.0
 11
203.9853414134983
 21
454.674006584028
 31
0.0
  0
LINE
  5
29E
330
2
100
AcDbEntity
  8
OUTLINE
  6
CONTINUOUS
 48
25.4
100
AcDbLine
 10
203.9853414134983
 20
454.8289635180281
 30
0.0
 11
203.9853414134983
 21
454.674006584028
 31
0.0
  0
LINE
  5
29F
330
2
100
AcDbEntity
  8
OUTLINE
  6
CONTINUOUS
 48
25.4
100
AcDbLine
 10
203.9853414134983
 20
454.674006584028
 30
0.0
 11
203.8410530579982
 21
454.6784699200278
 31
0.0
  0
LINE
  5
2A0
330
2
100
AcDbEntity
  8
OUTLINE
  6
CONTINUOUS
 48
25.4
100
AcDbLine
 10
203.8410530579982
 20
454.8309497335281
 30
0.0
 11
203.8410530579982
 21
454.6784699200278
 31
0.0
  0
LINE
  5
2A1
330
2
100
AcDbEntity
  8
OUTLINE
  6
CONTINUOUS
 48
25.4
100
AcDbLine
 10
203.8410530579982
 20
454.6784699200278
 30
0.0
 11
203.7304590019981
 21
454.6758848975279
 31
0.0
  0
LINE
  5
2A2
330
2
100
AcDbEntity
  8
OUTLINE
  6
CONTINUOUS
 48
25.4
100
AcDbLine
 10
203.7304590019981
 20
454.825511665528
 30
0.0
 11
203.7304590019981
 21
454.6758848975279
 31
0.0
  0
LINE
  5
2A3
330
2
100
AcDbEntity
  8
OUTLINE
  6
CONTINUOUS
 48
25.4
100
AcDbLine
 10
203.7304590019981
 20
454.6758848975279
 30
0.0
 11
203.6198662009983
 21
454.668424790528
 31
0.0
  0
LINE
  5
2A4
330
2
100
AcDbEntity
  8
OUTLINE
  6
CONTINUOUS
 48
25.4
100
AcDbLine
 10
203.6198662009983
 20
454.8144147835279
 30
0.0
 11
203.6198662009983
 21
454.668424790528
 31
0.0
  0
LINE
  5
2A5
330
2
100
AcDbEntity
  8
OUTLINE
  6
CONTINUOUS
 48
25.4
100
AcDbLine
 10
203.6198662009983
 20
454.668424790528
 30
0.0
 11
203.5092742239982
 21
454.6566434620278
 31
0.0
  0
LINE
  5
2A6
330
2
100
AcDbEntity
  8
OUTLINE
  6
CONTINUOUS
 48
25.4
100
AcDbLine
 10
203.5092742239982
 20
454.7982851370279
 30
0.0
 11
203.5092742239982
 21
454.6566434620278
 31
0.0
  0
LINE
  5
2A7
330
2
100
AcDbEntity
  8
OUTLINE
  6
CONTINUOUS
 48
25.4
100
AcDbLine
 10
203.5092742239982
 20
454.6566434620278
 30
0.0
 11
203.3986826409981
 21
454.641094775528
 31
0.0
  0
LINE
  5
2A8
330
2
100
AcDbEntity
  8
OUTLINE
  6
CONTINUOUS
 48
25.4
100
AcDbLine
 10
203.3986826409981
 20
454.7777479315278
 30
0.0
 11
203.3986826409981
 21
454.641094775528
 31
0.0
  0
LINE
  5
2A9
330
2
100
AcDbEntity
  8
OUTLINE
  6
CONTINUOUS
 48
25.4
100
AcDbLine
 10
203.3986826409981
 20
454.641094775528
 30
0.0
 11
203.2880910209982
 21
454.622332593528
 31
0.0
  0
LINE
  5
2AA
330
2
100
AcDbEntity
  8
OUTLINE
  6
CONTINUOUS
 48
25.4
100
AcDbLine
 10
203.2880910209982
 20
454.7534280700282
 30
0.0
 11
203.2880910209982
 21
454.622332593528
 31
0.0
  0
LINE
  5
2AB
330
2
100
AcDbEntity
  8
OUTLINE
  6
CONTINUOUS
 48
25.4
100
AcDbLine
 10
203.2880910209982
 20
454.622332593528
 30
0.0
 11
203.1774989329983
 21
454.600910779028
 31
0.0
  0
LINE
  5
2AC
330
2
100
AcDbEntity
  8
OUTLINE
  6
CONTINUOUS
 48
25.4
100
AcDbLine
 10
203.1774989329983
 20
454.7259506275278
 30
0.0
 11
203.1774989329983
 21
454.600910779028
 31
0.0
  0
LINE
  5
2AD
330
2
100
AcDbEntity
  8
OUTLINE
  6
CONTINUOUS
 48
25.4
100
AcDbLine
 10
203.1774989329983
 20
454.600910779028
 30
0.0
 11
203.0197139714982
 21
454.5667571995279
 31
0.0
  0
LINE
  5
2AE
330
2
100
AcDbEntity
  8
OUTLINE
  6
CONTINUOUS
 48
25.4
100
AcDbLine
 10
203.0116089819983
 20
454.6801828285281
 30
0.0
 11
203.0116089819983
 21
454.5697419475281
 31
0.0
  0
LINE
  5
2AF
330
2
100
AcDbEntity
  8
OUTLINE
  6
CONTINUOUS
 48
25.4
100
AcDbLine
 10
205.8622151594981
 20
454.8604045455281
 30
0.0
 11
206.0055725419981
 21
454.854596390028
 31
0.0
  0
LINE
  5
2B0
330
2
100
AcDbEntity
  8
OUTLINE
  6
CONTINUOUS
 48
25.4
100
AcDbLine
 10
205.7188579829982
 20
454.8748481550281
 30
0.0
 11
205.8622151594981
 21
454.8604045455281
 31
0.0
  0
LINE
  5
2B1
330
2
100
AcDbEntity
  8
OUTLINE
  6
CONTINUOUS
 48
25.4
100
AcDbLine
 10
205.5755012004981
 20
454.896549705528
 30
0.0
 11
205.7188579829982
 21
454.8748481550281
 31
0.0
  0
LINE
  5
2B2
330
2
100
AcDbEntity
  8
OUTLINE
  6
CONTINUOUS
 48
25.4
100
AcDbLine
 10
205.4321449989982
 20
454.9241304190278
 30
0.0
 11
205.5755012004981
 21
454.896549705528
 31
0.0
  0
LINE
  5
2B3
330
2
100
AcDbEntity
  8
OUTLINE
  6
CONTINUOUS
 48
25.4
100
AcDbLine
 10
205.2887895664983
 20
454.9562120035282
 30
0.0
 11
205.4321449989982
 21
454.9241304190278
 31
0.0
  0
LINE
  5
2B4
330
2
100
AcDbEntity
  8
OUTLINE
  6
CONTINUOUS
 48
25.4
100
AcDbLine
 10
205.0498660629983
 20
455.0159461225281
 30
0.0
 11
205.2887895664983
 21
454.9562120035282
 31
0.0
  0
LINE
  5
2B5
330
2
100
AcDbEntity
  8
OUTLINE
  6
CONTINUOUS
 48
25.4
100
AcDbLine
 10
204.8109460839981
 20
455.0780075095281
 30
0.0
 11
205.0498660629983
 21
455.0159461225281
 31
0.0
  0
LINE
  5
2B6
330
2
100
AcDbEntity
  8
OUTLINE
  6
CONTINUOUS
 48
25.4
100
AcDbLine
 10
204.5720304979982
 20
455.1360720815278
 30
0.0
 11
204.8109460839981
 21
455.0780075095281
 31
0.0
  0
LINE
  5
2B7
330
2
100
AcDbEntity
  8
OUTLINE
  6
CONTINUOUS
 48
25.4
100
AcDbLine
 10
204.4286836159983
 20
455.1663724025278
 30
0.0
 11
204.5720304979982
 21
455.1360720815278
 31
0.0
  0
LINE
  5
2B8
330
2
100
AcDbEntity
  8
OUTLINE
  6
CONTINUOUS
 48
25.4
100
AcDbLine
 10
204.2853388154983
 20
455.191611241528
 30
0.0
 11
204.4286836159983
 21
455.1663724025278
 31
0.0
  0
LINE
  5
2B9
330
2
100
AcDbEntity
  8
OUTLINE
  6
CONTINUOUS
 48
25.4
100
AcDbLine
 10
204.1419962839981
 20
455.210434474528
 30
0.0
 11
204.2853388154983
 21
455.191611241528
 31
0.0
  0
LINE
  5
2BA
330
2
100
AcDbEntity
  8
OUTLINE
  6
CONTINUOUS
 48
25.4
100
AcDbLine
 10
203.9986562089983
 20
455.2214882335281
 30
0.0
 11
204.1419962839981
 21
455.210434474528
 31
0.0
  0
LINE
  5
2BB
330
2
100
AcDbEntity
  8
OUTLINE
  6
CONTINUOUS
 48
25.4
100
AcDbLine
 10
203.8553187779983
 20
455.2234171215278
 30
0.0
 11
203.9986562089983
 21
455.2214882335281
 31
0.0
  0
LINE
  5
2BC
330
2
100
AcDbEntity
  8
OUTLINE
  6
CONTINUOUS
 48
25.4
100
AcDbLine
 10
203.7760634284983
 20
455.220146325028
 30
0.0
 11
203.8553187779983
 21
455.2234171215278
 31
0.0
  0
LINE
  5
2BD
330
2
100
AcDbEntity
  8
OUTLINE
  6
CONTINUOUS
 48
25.4
100
AcDbLine
 10
203.6968087864983
 20
455.2138996345278
 30
0.0
 11
203.7760634284983
 21
455.220146325028
 31
0.0
  0
LINE
  5
2BE
330
2
100
AcDbEntity
  8
OUTLINE
  6
CONTINUOUS
 48
25.4
100
AcDbLine
 10
203.6175546929983
 20
455.204905962528
 30
0.0
 11
203.6968087864983
 21
455.2138996345278
 31
0.0
  0
LINE
  5
2BF
330
2
100
AcDbEntity
  8
OUTLINE
  6
CONTINUOUS
 48
25.4
100
AcDbLine
 10
203.5383009894981
 20
455.1933939115281
 30
0.0
 11
203.6175546929983
 21
455.204905962528
 31
0.0
  0
LINE
  5
2C0
330
2
100
AcDbEntity
  8
OUTLINE
  6
CONTINUOUS
 48
25.4
100
AcDbLine
 10
203.4590475179983
 20
455.1795918860279
 30
0.0
 11
203.5383009894981
 21
455.1933939115281
 31
0.0
  0
LINE
  5
2C1
330
2
100
AcDbEntity
  8
OUTLINE
  6
CONTINUOUS
 48
25.4
100
AcDbLine
 10
203.3797941194983
 20
455.1637281935279
 30
0.0
 11
203.4590475179983
 21
455.1795918860279
 31
0.0
  0
LINE
  5
2C2
330
2
100
AcDbEntity
  8
OUTLINE
  6
CONTINUOUS
 48
25.4
100
AcDbLine
 10
203.2609138119981
 20
455.1365664695281
 30
0.0
 11
203.3797941194983
 21
455.1637281935279
 31
0.0
  0
LINE
  5
2C3
330
2
100
AcDbEntity
  8
OUTLINE
  6
CONTINUOUS
 48
25.4
100
AcDbLine
 10
203.1420327779982
 20
455.106050646028
 30
0.0
 11
203.2609138119981
 21
455.1365664695281
 31
0.0
  0
LINE
  5
2C4
330
2
100
AcDbEntity
  8
OUTLINE
  6
CONTINUOUS
 48
25.4
100
AcDbLine
 10
202.2394224619983
 20
454.8589431915279
 30
0.0
 11
203.1420327779982
 21
455.106050646028
 31
0.0
  0
LINE
  5
2C5
330
2
100
AcDbEntity
  8
OUTLINE
  6
CONTINUOUS
 48
25.4
100
AcDbLine
 10
202.2090874009982
 20
454.876196808528
 30
0.0
 11
202.2394224619983
 21
454.8589431915279
 31
0.0
  0
LINE
  5
2C6
330
2
100
AcDbEntity
  8
OUTLINE
  6
CONTINUOUS
 48
25.4
100
AcDbLine
 10
202.1794215879983
 20
454.894190109028
 30
0.0
 11
202.2090874009982
 21
454.876196808528
 31
0.0
  0
LINE
  5
2C7
330
2
100
AcDbEntity
  8
OUTLINE
  6
CONTINUOUS
 48
25.4
100
AcDbLine
 10
202.1222581229983
 20
454.9323040645281
 30
0.0
 11
202.1794215879983
 21
454.894190109028
 31
0.0
  0
LINE
  5
2C8
330
2
100
AcDbEntity
  8
OUTLINE
  6
CONTINUOUS
 48
25.4
100
AcDbLine
 10
202.0682338219981
 20
454.9730829300282
 30
0.0
 11
202.1222581229983
 21
454.9323040645281
 31
0.0
  0
LINE
  5
2C9
330
2
100
AcDbEntity
  8
OUTLINE
  6
CONTINUOUS
 48
25.4
100
AcDbLine
 10
203.1420327779982
 20
455.2646009275281
 30
0.0
 11
202.0682338219981
 21
454.9730829300282
 31
0.0
  0
LINE
  5
2CA
330
2
100
AcDbEntity
  8
OUTLINE
  6
CONTINUOUS
 48
25.4
100
AcDbLine
 10
203.2585360964982
 20
455.294118173028
 30
0.0
 11
203.1420327779982
 21
455.2646009275281
 31
0.0
  0
LINE
  5
2CB
330
2
100
AcDbEntity
  8
OUTLINE
  6
CONTINUOUS
 48
25.4
100
AcDbLine
 10
203.3750387684983
 20
455.320349796528
 30
0.0
 11
203.2585360964982
 21
455.294118173028
 31
0.0
  0
LINE
  5
2CC
330
2
100
AcDbEntity
  8
OUTLINE
  6
CONTINUOUS
 48
25.4
100
AcDbLine
 10
203.4527071054983
 20
455.3356549870279
 30
0.0
 11
203.3750387684983
 21
455.320349796528
 31
0.0
  0
LINE
  5
2CD
330
2
100
AcDbEntity
  8
OUTLINE
  6
CONTINUOUS
 48
25.4
100
AcDbLine
 10
203.5303755284981
 20
455.3489642045279
 30
0.0
 11
203.4527071054983
 21
455.3356549870279
 31
0.0
  0
LINE
  5
2CE
330
2
100
AcDbEntity
  8
OUTLINE
  6
CONTINUOUS
 48
25.4
100
AcDbLine
 10
203.6080441854982
 20
455.3600632235279
 30
0.0
 11
203.5303755284981
 21
455.3489642045279
 31
0.0
  0
LINE
  5
2CF
330
2
100
AcDbEntity
  8
OUTLINE
  6
CONTINUOUS
 48
25.4
100
AcDbLine
 10
203.6857132269981
 20
455.368737723528
 30
0.0
 11
203.6080441854982
 21
455.3600632235279
 31
0.0
  0
LINE
  5
2D0
330
2
100
AcDbEntity
  8
OUTLINE
  6
CONTINUOUS
 48
25.4
100
AcDbLine
 10
203.7633828014981
 20
455.3747731955279
 30
0.0
 11
203.6857132269981
 21
455.368737723528
 31
0.0
  0
LINE
  5
2D1
330
2
100
AcDbEntity
  8
OUTLINE
  6
CONTINUOUS
 48
25.4
100
AcDbLine
 10
203.8410530579982
 20
455.3779548400282
 30
0.0
 11
203.7633828014981
 21
455.3747731955279
 31
0.0
  0
LINE
  5
2D2
330
2
100
AcDbEntity
  8
OUTLINE
  6
CONTINUOUS
 48
25.4
100
AcDbLine
 10
203.9853414134983
 20
455.3760164130277
 30
0.0
 11
203.8410530579982
 21
455.3779548400282
 31
0.0
  0
LINE
  5
2D3
330
2
100
AcDbEntity
  8
OUTLINE
  6
CONTINUOUS
 48
25.4
100
AcDbLine
 10
204.1296324464981
 20
455.3648685345279
 30
0.0
 11
203.9853414134983
 21
455.3760164130277
 31
0.0
  0
LINE
  5
2D4
330
2
100
AcDbEntity
  8
OUTLINE
  6
CONTINUOUS
 48
25.4
100
AcDbLine
 10
204.2739259669983
 20
455.345889483028
 30
0.0
 11
204.1296324464981
 21
455.3648685345279
 31
0.0
  0
LINE
  5
2D5
330
2
100
AcDbEntity
  8
OUTLINE
  6
CONTINUOUS
 48
25.4
100
AcDbLine
 10
204.4182217824983
 20
455.3204559925281
 30
0.0
 11
204.2739259669983
 21
455.345889483028
 31
0.0
  0
LINE
  5
2D6
330
2
100
AcDbEntity
  8
OUTLINE
  6
CONTINUOUS
 48
25.4
100
AcDbLine
 10
204.5625197019981
 20
455.2899450965281
 30
0.0
 11
204.4182217824983
 21
455.3204559925281
 31
0.0
  0
LINE
  5
2D7
330
2
100
AcDbEntity
  8
OUTLINE
  6
CONTINUOUS
 48
25.4
100
AcDbLine
 10
204.8030203909982
 20
455.2315566530277
 30
0.0
 11
204.5625197019981
 21
455.2899450965281
 31
0.0
  0
LINE
  5
2D8
330
2
100
AcDbEntity
  8
OUTLINE
  6
CONTINUOUS
 48
25.4
100
AcDbLine
 10
205.0435255074983
 20
455.1692980960279
 30
0.0
 11
204.8030203909982
 21
455.2315566530277
 31
0.0
  0
LINE
  5
2D9
330
2
100
AcDbEntity
  8
OUTLINE
  6
CONTINUOUS
 48
25.4
100
AcDbLine
 10
205.2840341664982
 20
455.1096013655278
 30
0.0
 11
205.0435255074983
 21
455.1692980960279
 31
0.0
  0
LINE
  5
2DA
330
2
100
AcDbEntity
  8
OUTLINE
  6
CONTINUOUS
 48
25.4
100
AcDbLine
 10
205.4283406939982
 20
455.0776999015281
 30
0.0
 11
205.2840341664982
 21
455.1096013655278
 31
0.0
  0
LINE
  5
2DB
330
2
100
AcDbEntity
  8
OUTLINE
  6
CONTINUOUS
 48
25.4
100
AcDbLine
 10
205.5726479864983
 20
455.0504462435281
 30
0.0
 11
205.4283406939982
 21
455.0776999015281
 31
0.0
  0
LINE
  5
2DC
330
2
100
AcDbEntity
  8
OUTLINE
  6
CONTINUOUS
 48
25.4
100
AcDbLine
 10
205.7169558529983
 20
455.0292420965281
 30
0.0
 11
205.5726479864983
 21
455.0504462435281
 31
0.0
  0
LINE
  5
2DD
330
2
100
AcDbEntity
  8
OUTLINE
  6
CONTINUOUS
 48
25.4
100
AcDbLine
 10
205.8612641014982
 20
455.0154895315278
 30
0.0
 11
205.7169558529983
 21
455.0292420965281
 31
0.0
  0
LINE
  5
2DE
330
2
100
AcDbEntity
  8
OUTLINE
  6
CONTINUOUS
 48
25.4
100
AcDbLine
 10
206.0055725419981
 20
455.0105891505278
 30
0.0
 11
205.8612641014982
 21
455.0154895315278
 31
0.0
  0
LINE
  5
2DF
330
2
100
AcDbEntity
  8
OUTLINE
  6
CONTINUOUS
 48
25.4
100
AcDbLine
 10
206.1498809819981
 20
455.015473098528
 30
0.0
 11
206.0055725419981
 21
455.0105891505278
 31
0.0
  0
LINE
  5
2E0
330
2
100
AcDbEntity
  8
OUTLINE
  6
CONTINUOUS
 48
25.4
100
AcDbLine
 10
206.2941892309983
 20
455.029209232028
 30
0.0
 11
206.1498809819981
 21
455.015473098528
 31
0.0
  0
LINE
  5
2E1
330
2
100
AcDbEntity
  8
OUTLINE
  6
CONTINUOUS
 48
25.4
100
AcDbLine
 10
206.4384970969983
 20
455.050396949028
 30
0.0
 11
206.2941892309983
 21
455.029209232028
 31
0.0
  0
LINE
  5
2E2
330
2
100
AcDbEntity
  8
OUTLINE
  6
CONTINUOUS
 48
25.4
100
AcDbLine
 10
206.5828043894981
 20
455.077634179528
 30
0.0
 11
206.4384970969983
 21
455.050396949028
 31
0.0
  0
LINE
  5
2E3
330
2
100
AcDbEntity
  8
OUTLINE
  6
CONTINUOUS
 48
25.4
100
AcDbLine
 10
206.7271109169983
 20
455.109519219028
 30
0.0
 11
206.5828043894981
 21
455.077634179528
 31
0.0
  0
LINE
  5
2E4
330
2
100
AcDbEntity
  8
OUTLINE
  6
CONTINUOUS
 48
25.4
100
AcDbLine
 10
206.9676195759983
 20
455.1691885815277
 30
0.0
 11
206.7271109169983
 21
455.109519219028
 31
0.0
  0
LINE
  5
2E5
330
2
100
AcDbEntity
  8
OUTLINE
  6
CONTINUOUS
 48
25.4
100
AcDbLine
 10
207.2081246929982
 20
455.2314197775281
 30
0.0
 11
206.9676195759983
 21
455.1691885815277
 31
0.0
  0
LINE
  5
2E6
330
2
100
AcDbEntity
  8
OUTLINE
  6
CONTINUOUS
 48
25.4
100
AcDbLine
 10
207.4486253819983
 20
455.2897808640278
 30
0.0
 11
207.2081246929982
 21
455.2314197775281
 31
0.0
  0
LINE
  5
2E7
330
2
100
AcDbEntity
  8
OUTLINE
  6
CONTINUOUS
 48
25.4
100
AcDbLine
 10
207.5929233014983
 20
455.320275345528
 30
0.0
 11
207.4486253819983
 21
455.2897808640278
 31
0.0
  0
LINE
  5
2E8
330
2
100
AcDbEntity
  8
OUTLINE
  6
CONTINUOUS
 48
25.4
100
AcDbLine
 10
207.7372191169983
 20
455.3456924190278
 30
0.0
 11
207.5929233014983
 21
455.320275345528
 31
0.0
  0
LINE
  5
2E9
330
2
100
AcDbEntity
  8
OUTLINE
  6
CONTINUOUS
 48
25.4
100
AcDbLine
 10
207.8815126369983
 20
455.364655051528
 30
0.0
 11
207.7372191169983
 21
455.3456924190278
 31
0.0
  0
LINE
  5
2EA
330
2
100
AcDbEntity
  8
OUTLINE
  6
CONTINUOUS
 48
25.4
100
AcDbLine
 10
208.0258036704983
 20
455.375786504528
 30
0.0
 11
207.8815126369983
 21
455.364655051528
 31
0.0
  0
LINE
  5
2EB
330
2
100
AcDbEntity
  8
OUTLINE
  6
CONTINUOUS
 48
25.4
100
AcDbLine
 10
208.1700920259982
 20
455.3777085005281
 30
0.0
 11
208.0258036704983
 21
455.375786504528
 31
0.0
  0
LINE
  5
2EC
330
2
100
AcDbEntity
  8
OUTLINE
  6
CONTINUOUS
 48
25.4
100
AcDbLine
 10
208.2477622824983
 20
455.374518006528
 30
0.0
 11
208.1700920259982
 21
455.3777085005281
 31
0.0
  0
LINE
  5
2ED
330
2
100
AcDbEntity
  8
OUTLINE
  6
CONTINUOUS
 48
25.4
100
AcDbLine
 10
208.3254318569981
 20
455.3684736830279
 30
0.0
 11
208.2477622824983
 21
455.374518006528
 31
0.0
  0
LINE
  5
2EE
330
2
100
AcDbEntity
  8
OUTLINE
  6
CONTINUOUS
 48
25.4
100
AcDbLine
 10
208.4031008979983
 20
455.3597903280278
 30
0.0
 11
208.3254318569981
 21
455.3684736830279
 31
0.0
  0
LINE
  5
2EF
330
2
100
AcDbEntity
  8
OUTLINE
  6
CONTINUOUS
 48
25.4
100
AcDbLine
 10
208.4807695554983
 20
455.3486824510279
 30
0.0
 11
208.4031008979983
 21
455.3597903280278
 31
0.0
  0
LINE
  5
2F0
330
2
100
AcDbEntity
  8
OUTLINE
  6
CONTINUOUS
 48
25.4
100
AcDbLine
 10
208.5584379779983
 20
455.3353643725281
 30
0.0
 11
208.4807695554983
 21
455.3486824510279
 31
0.0
  0
LINE
  5
2F1
330
2
100
AcDbEntity
  8
OUTLINE
  6
CONTINUOUS
 48
25.4
100
AcDbLine
 10
208.6361063154983
 20
455.3200503185279
 30
0.0
 11
208.5584379779983
 21
455.3353643725281
 31
0.0
  0
LINE
  5
2F2
330
2
100
AcDbEntity
  8
OUTLINE
  6
CONTINUOUS
 48
25.4
100
AcDbLine
 10
208.7526089869983
 20
455.2938053935279
 30
0.0
 11
208.6361063154983
 21
455.3200503185279
 31
0.0
  0
LINE
  5
2F3
330
2
100
AcDbEntity
  8
OUTLINE
  6
CONTINUOUS
 48
25.4
100
AcDbLine
 10
208.8691123059982
 20
455.264274839028
 30
0.0
 11
208.7526089869983
 21
455.2938053935279
 31
0.0
  0
LINE
  5
2F4
330
2
100
AcDbEntity
  8
OUTLINE
  6
CONTINUOUS
 48
25.4
100
AcDbLine
 10
209.9429112619983
 20
454.972633930028
 30
0.0
 11
208.8691123059982
 21
455.264274839028
 31
0.0
  0
LINE
  5
2F5
330
2
100
AcDbEntity
  8
OUTLINE
  6
CONTINUOUS
 48
25.4
100
AcDbLine
 10
209.9163090914982
 20
454.9519281480279
 30
0.0
 11
209.9429112619983
 21
454.972633930028
 31
0.0
  0
LINE
  5
2F6
330
2
100
AcDbEntity
  8
OUTLINE
  6
CONTINUOUS
 48
25.4
100
AcDbLine
 10
209.8888869609981
 20
454.9318611920281
 30
0.0
 11
209.9163090914982
 21
454.9519281480279
 31
0.0
  0
LINE
  5
2F7
330
2
100
AcDbEntity
  8
OUTLINE
  6
CONTINUOUS
 48
25.4
100
AcDbLine
 10
209.8317234954982
 20
454.8937537260281
 30
0.0
 11
209.8888869609981
 21
454.9318611920281
 31
0.0
  0
LINE
  5
2F8
330
2
100
AcDbEntity
  8
OUTLINE
  6
CONTINUOUS
 48
25.4
100
AcDbLine
 10
209.7717226219983
 20
454.8585136260279
 30
0.0
 11
209.8317234954982
 21
454.8937537260281
 31
0.0
  0
LINE
  5
2F9
330
2
100
AcDbEntity
  8
OUTLINE
  6
CONTINUOUS
 48
25.4
100
AcDbLine
 10
208.8691123059982
 20
455.1057244190277
 30
0.0
 11
209.7717226219983
 21
454.8585136260279
 31
0.0
  0
LINE
  5
2FA
330
2
100
AcDbEntity
  8
OUTLINE
  6
CONTINUOUS
 48
25.4
100
AcDbLine
 10
208.7502312714982
 20
455.1362538295282
 30
0.0
 11
208.8691123059982
 21
455.1057244190277
 31
0.0
  0
LINE
  5
2FB
330
2
100
AcDbEntity
  8
OUTLINE
  6
CONTINUOUS
 48
25.4
100
AcDbLine
 10
208.6313509644983
 20
455.1634291335278
 30
0.0
 11
208.7502312714982
 21
455.1362538295282
 31
0.0
  0
LINE
  5
2FC
330
2
100
AcDbEntity
  8
OUTLINE
  6
CONTINUOUS
 48
25.4
100
AcDbLine
 10
208.5520975659983
 20
455.1793018745279
 30
0.0
 11
208.6313509644983
 21
455.1634291335278
 31
0.0
  0
LINE
  5
2FD
330
2
100
AcDbEntity
  8
OUTLINE
  6
CONTINUOUS
 48
25.4
100
AcDbLine
 10
208.4728440944981
 20
455.1931129460278
 30
0.0
 11
208.5520975659983
 21
455.1793018745279
 31
0.0
  0
LINE
  5
2FE
330
2
100
AcDbEntity
  8
OUTLINE
  6
CONTINUOUS
 48
25.4
100
AcDbLine
 10
208.3935903909983
 20
455.2046340390281
 30
0.0
 11
208.4728440944981
 21
455.1931129460278
 31
0.0
  0
LINE
  5
2FF
330
2
100
AcDbEntity
  8
OUTLINE
  6
CONTINUOUS
 48
25.4
100
AcDbLine
 10
208.3143362974981
 20
455.2136367505278
 30
0.0
 11
208.3935903909983
 21
455.2046340390281
 31
0.0
  0
LINE
  5
300
330
2
100
AcDbEntity
  8
OUTLINE
  6
CONTINUOUS
 48
25.4
100
AcDbLine
 10
208.2350816554983
 20
455.2198924770282
 30
0.0
 11
208.3143362974981
 21
455.2136367505278
 31
0.0
  0
LINE
  5
301
330
2
100
AcDbEntity
  8
OUTLINE
  6
CONTINUOUS
 48
25.4
100
AcDbLine
 10
208.1558263059983
 20
455.223172307028
 30
0.0
 11
208.2350816554983
 21
455.2198924770282
 31
0.0
  0
LINE
  5
302
330
2
100
AcDbEntity
  8
OUTLINE
  6
CONTINUOUS
 48
25.4
100
AcDbLine
 10
208.0124888749983
 20
455.2212597490281
 30
0.0
 11
208.1558263059983
 21
455.223172307028
 31
0.0
  0
LINE
  5
303
330
2
100
AcDbEntity
  8
OUTLINE
  6
CONTINUOUS
 48
25.4
100
AcDbLine
 10
207.8691487999983
 20
455.2102223125281
 30
0.0
 11
208.0124888749983
 21
455.2212597490281
 31
0.0
  0
LINE
  5
304
330
2
100
AcDbEntity
  8
OUTLINE
  6
CONTINUOUS
 48
25.4
100
AcDbLine
 10
207.7258062679983
 20
455.1914153975281
 30
0.0
 11
207.8691487999983
 21
455.2102223125281
 31
0.0
  0
LINE
  5
305
330
2
100
AcDbEntity
  8
OUTLINE
  6
CONTINUOUS
 48
25.4
100
AcDbLine
 10
207.5824614674981
 20
455.1661928730278
 30
0.0
 11
207.7258062679983
 21
455.1914153975281
 31
0.0
  0
LINE
  5
306
330
2
100
AcDbEntity
  8
OUTLINE
  6
CONTINUOUS
 48
25.4
100
AcDbLine
 10
207.4391145854983
 20
455.1359088645281
 30
0.0
 11
207.5824614674981
 21
455.1661928730278
 31
0.0
  0
LINE
  5
307
330
2
100
AcDbEntity
  8
OUTLINE
  6
CONTINUOUS
 48
25.4
100
AcDbLine
 10
207.2001989994983
 20
455.077871480528
 30
0.0
 11
207.4391145854983
 21
455.1359088645281
 31
0.0
  0
LINE
  5
308
330
2
100
AcDbEntity
  8
OUTLINE
  6
CONTINUOUS
 48
25.4
100
AcDbLine
 10
206.9612790204983
 20
455.0158372850281
 30
0.0
 11
207.2001989994983
 21
455.077871480528
 31
0.0
  0
LINE
  5
309
330
2
100
AcDbEntity
  8
OUTLINE
  6
CONTINUOUS
 48
25.4
100
AcDbLine
 10
206.7223555174983
 20
454.9561303645279
 30
0.0
 11
206.9612790204983
 21
455.0158372850281
 31
0.0
  0
LINE
  5
30A
330
2
100
AcDbEntity
  8
OUTLINE
  6
CONTINUOUS
 48
25.4
100
AcDbLine
 10
206.5790000849981
 20
454.9240651030278
 30
0.0
 11
206.7223555174983
 21
454.9561303645279
 31
0.0
  0
LINE
  5
30B
330
2
100
AcDbEntity
  8
OUTLINE
  6
CONTINUOUS
 48
25.4
100
AcDbLine
 10
206.4356438834983
 20
454.8965007150278
 30
0.0
 11
206.5790000849981
 21
454.9240651030278
 31
0.0
  0
LINE
  5
30C
330
2
100
AcDbEntity
  8
OUTLINE
  6
CONTINUOUS
 48
25.4
100
AcDbLine
 10
206.2922871004983
 20
454.874815493028
 30
0.0
 11
206.4356438834983
 21
454.8965007150278
 31
0.0
  0
LINE
  5
30D
330
2
100
AcDbEntity
  8
OUTLINE
  6
CONTINUOUS
 48
25.4
100
AcDbLine
 10
206.1489299244982
 20
454.8603882135282
 30
0.0
 11
206.2922871004983
 21
454.874815493028
 31
0.0
  0
LINE
  5
30E
330
2
100
AcDbEntity
  8
OUTLINE
  6
CONTINUOUS
 48
25.4
100
AcDbLine
 10
206.0055725419981
 20
454.854596390028
 30
0.0
 11
206.1489299244982
 21
454.8603882135282
 31
0.0
  0
LINE
  5
30F
330
2
100
AcDbEntity
  8
OUTLINE
  6
CONTINUOUS
 48
25.4
100
AcDbLine
 10
209.8094910754983
 20
454.8806960375278
 30
0.0
 11
209.3011089134983
 21
454.9874073315279
 31
0.0
  0
LINE
  5
310
330
2
100
AcDbEntity
  8
OUTLINE
  6
CONTINUOUS
 48
25.4
100
AcDbLine
 10
208.8691123059982
 20
455.264274839028
 30
0.0
 11
208.8691123059982
 21
455.1057244190277
 31
0.0
  0
LINE
  5
311
330
2
100
AcDbEntity
  8
OUTLINE
  6
CONTINUOUS
 48
25.4
100
AcDbLine
 10
208.7526089869983
 20
455.2938053935279
 30
0.0
 11
208.7526089869983
 21
455.1356432170279
 31
0.0
  0
LINE
  5
312
330
2
100
AcDbEntity
  8
OUTLINE
  6
CONTINUOUS
 48
25.4
100
AcDbLine
 10
208.6361063154983
 20
455.3200503185279
 30
0.0
 11
208.6361063154983
 21
455.1623420895279
 31
0.0
  0
LINE
  5
313
330
2
100
AcDbEntity
  8
OUTLINE
  6
CONTINUOUS
 48
25.4
100
AcDbLine
 10
208.5584379779983
 20
455.3353643725281
 30
0.0
 11
208.5584379779983
 21
455.1780320270281
 31
0.0
  0
LINE
  5
314
330
2
100
AcDbEntity
  8
OUTLINE
  6
CONTINUOUS
 48
25.4
100
AcDbLine
 10
208.4807695554983
 20
455.3486824510279
 30
0.0
 11
208.4807695554983
 21
455.1917318190279
 31
0.0
  0
LINE
  5
315
330
2
100
AcDbEntity
  8
OUTLINE
  6
CONTINUOUS
 48
25.4
100
AcDbLine
 10
208.4031008979983
 20
455.3597903280278
 30
0.0
 11
208.4031008979983
 21
455.203251499028
 31
0.0
  0
LINE
  5
316
330
2
100
AcDbEntity
  8
OUTLINE
  6
CONTINUOUS
 48
25.4
100
AcDbLine
 10
208.3254318569981
 20
455.3684736830279
 30
0.0
 11
208.3254318569981
 21
455.2123763725281
 31
0.0
  0
LINE
  5
317
330
2
100
AcDbEntity
  8
OUTLINE
  6
CONTINUOUS
 48
25.4
100
AcDbLine
 10
208.2477622824983
 20
455.374518006528
 30
0.0
 11
208.2477622824983
 21
455.2188915700281
 31
0.0
  0
LINE
  5
318
330
2
100
AcDbEntity
  8
OUTLINE
  6
CONTINUOUS
 48
25.4
100
AcDbLine
 10
208.1700920259982
 20
455.3777085005281
 30
0.0
 11
208.1700920259982
 21
455.2225819475281
 31
0.0
  0
LINE
  5
319
330
2
100
AcDbEntity
  8
OUTLINE
  6
CONTINUOUS
 48
25.4
100
AcDbLine
 10
208.0258036704983
 20
455.375786504528
 30
0.0
 11
208.0258036704983
 21
455.2214374090281
 31
0.0
  0
LINE
  5
31A
330
2
100
AcDbEntity
  8
OUTLINE
  6
CONTINUOUS
 48
25.4
100
AcDbLine
 10
207.8815126369983
 20
455.364655051528
 30
0.0
 11
207.8815126369983
 21
455.2111743495278
 31
0.0
  0
LINE
  5
31B
330
2
100
AcDbEntity
  8
OUTLINE
  6
CONTINUOUS
 48
25.4
100
AcDbLine
 10
207.7372191169983
 20
455.3456924190278
 30
0.0
 11
207.7372191169983
 21
455.192912793028
 31
0.0
  0
LINE
  5
31C
330
2
100
AcDbEntity
  8
OUTLINE
  6
CONTINUOUS
 48
25.4
100
AcDbLine
 10
207.5929233014983
 20
455.320275345528
 30
0.0
 11
207.5929233014983
 21
455.1680337060279
 31
0.0
  0
LINE
  5
31D
330
2
100
AcDbEntity
  8
OUTLINE
  6
CONTINUOUS
 48
25.4
100
AcDbLine
 10
207.4486253819983
 20
455.2897808640278
 30
0.0
 11
207.4486253819983
 21
455.1379181515279
 31
0.0
  0
LINE
  5
31E
330
2
100
AcDbEntity
  8
OUTLINE
  6
CONTINUOUS
 48
25.4
100
AcDbLine
 10
207.2081246929982
 20
455.2314197775281
 30
0.0
 11
207.2081246929982
 21
455.079796790528
 31
0.0
  0
LINE
  5
31F
330
2
100
AcDbEntity
  8
OUTLINE
  6
CONTINUOUS
 48
25.4
100
AcDbLine
 10
206.9676195759983
 20
455.1691885815277
 30
0.0
 11
206.9676195759983
 21
455.0174835735279
 31
0.0
  0
LINE
  5
320
330
2
100
AcDbEntity
  8
OUTLINE
  6
CONTINUOUS
 48
25.4
100
AcDbLine
 10
206.7271109169983
 20
455.109519219028
 30
0.0
 11
206.7271109169983
 21
454.9573187375282
 31
0.0
  0
LINE
  5
321
330
2
100
AcDbEntity
  8
OUTLINE
  6
CONTINUOUS
 48
25.4
100
AcDbLine
 10
206.5828043894981
 20
455.077634179528
 30
0.0
 11
206.5828043894981
 21
454.9249160370279
 31
0.0
  0
LINE
  5
322
330
2
100
AcDbEntity
  8
OUTLINE
  6
CONTINUOUS
 48
25.4
100
AcDbLine
 10
206.4384970969983
 20
455.050396949028
 30
0.0
 11
206.4384970969983
 21
454.8970493280277
 31
0.0
  0
LINE
  5
323
330
2
100
AcDbEntity
  8
OUTLINE
  6
CONTINUOUS
 48
25.4
100
AcDbLine
 10
206.2941892309983
 20
455.029209232028
 30
0.0
 11
206.2941892309983
 21
454.8751032235279
 31
0.0
  0
LINE
  5
324
330
2
100
AcDbEntity
  8
OUTLINE
  6
CONTINUOUS
 48
25.4
100
AcDbLine
 10
206.1498809819981
 20
455.015473098528
 30
0.0
 11
206.1498809819981
 21
454.860483927028
 31
0.0
  0
LINE
  5
325
330
2
100
AcDbEntity
  8
OUTLINE
  6
CONTINUOUS
 48
25.4
100
AcDbLine
 10
206.0055725419981
 20
455.0105891505278
 30
0.0
 11
206.0055725419981
 21
454.854596390028
 31
0.0
  0
LINE
  5
326
330
2
100
AcDbEntity
  8
OUTLINE
  6
CONTINUOUS
 48
25.4
100
AcDbLine
 10
205.8612641014982
 20
455.0154895315278
 30
0.0
 11
205.8612641014982
 21
454.8605003670279
 31
0.0
  0
LINE
  5
327
330
2
100
AcDbEntity
  8
OUTLINE
  6
CONTINUOUS
 48
25.4
100
AcDbLine
 10
205.7169558529983
 20
455.0292420965281
 30
0.0
 11
205.7169558529983
 21
454.8751361020281
 31
0.0
  0
LINE
  5
328
330
2
100
AcDbEntity
  8
OUTLINE
  6
CONTINUOUS
 48
25.4
100
AcDbLine
 10
205.5726479864983
 20
455.0504462435281
 30
0.0
 11
205.5726479864983
 21
454.8970986435281
 31
0.0
  0
LINE
  5
329
330
2
100
AcDbEntity
  8
OUTLINE
  6
CONTINUOUS
 48
25.4
100
AcDbLine
 10
205.4283406939982
 20
455.0776999015281
 30
0.0
 11
205.4283406939982
 21
454.924981786528
 31
0.0
  0
LINE
  5
32A
330
2
100
AcDbEntity
  8
OUTLINE
  6
CONTINUOUS
 48
25.4
100
AcDbLine
 10
205.2840341664982
 20
455.1096013655278
 30
0.0
 11
205.2840341664982
 21
454.957400918028
 31
0.0
  0
LINE
  5
32B
330
2
100
AcDbEntity
  8
OUTLINE
  6
CONTINUOUS
 48
25.4
100
AcDbLine
 10
205.0435255074983
 20
455.1692980960279
 30
0.0
 11
205.0435255074983
 21
455.0175931325278
 31
0.0
  0
LINE
  5
32C
330
2
100
AcDbEntity
  8
OUTLINE
  6
CONTINUOUS
 48
25.4
100
AcDbLine
 10
204.8030203909982
 20
455.2315566530277
 30
0.0
 11
204.8030203909982
 21
455.079933721528
 31
0.0
  0
LINE
  5
32D
330
2
100
AcDbEntity
  8
OUTLINE
  6
CONTINUOUS
 48
25.4
100
AcDbLine
 10
204.5625197019981
 20
455.2899450965281
 30
0.0
 11
204.5625197019981
 21
455.1380824510281
 31
0.0
  0
LINE
  5
32E
330
2
100
AcDbEntity
  8
OUTLINE
  6
CONTINUOUS
 48
25.4
100
AcDbLine
 10
204.4182217824983
 20
455.3204559925281
 30
0.0
 11
204.4182217824983
 21
455.168214426528
 31
0.0
  0
LINE
  5
32F
330
2
100
AcDbEntity
  8
OUTLINE
  6
CONTINUOUS
 48
25.4
100
AcDbLine
 10
204.2739259669983
 20
455.345889483028
 30
0.0
 11
204.2739259669983
 21
455.1931099365281
 31
0.0
  0
LINE
  5
330
330
2
100
AcDbEntity
  8
OUTLINE
  6
CONTINUOUS
 48
25.4
100
AcDbLine
 10
204.1296324464981
 20
455.3648685345279
 30
0.0
 11
204.1296324464981
 21
455.2113879195281
 31
0.0
  0
LINE
  5
331
330
2
100
AcDbEntity
  8
OUTLINE
  6
CONTINUOUS
 48
25.4
100
AcDbLine
 10
203.9853414134983
 20
455.3760164130277
 30
0.0
 11
203.9853414134983
 21
455.2216674105282
 31
0.0
  0
LINE
  5
332
330
2
100
AcDbEntity
  8
OUTLINE
  6
CONTINUOUS
 48
25.4
100
AcDbLine
 10
203.8410530579982
 20
455.3779548400282
 30
0.0
 11
203.8410530579982
 21
455.2228283880281
 31
0.0
  0
LINE
  5
333
330
2
100
AcDbEntity
  8
OUTLINE
  6
CONTINUOUS
 48
25.4
100
AcDbLine
 10
203.7633828014981
 20
455.3747731955279
 30
0.0
 11
203.7633828014981
 21
455.219146863528
 31
0.0
  0
LINE
  5
334
330
2
100
AcDbEntity
  8
OUTLINE
  6
CONTINUOUS
 48
25.4
100
AcDbLine
 10
203.6857132269981
 20
455.368737723528
 30
0.0
 11
203.6857132269981
 21
455.2126405220279
 31
0.0
  0
LINE
  5
335
330
2
100
AcDbEntity
  8
OUTLINE
  6
CONTINUOUS
 48
25.4
100
AcDbLine
 10
203.6080441854982
 20
455.3600632235279
 30
0.0
 11
203.6080441854982
 21
455.2035245075278
 31
0.0
  0
LINE
  5
336
330
2
100
AcDbEntity
  8
OUTLINE
  6
CONTINUOUS
 48
25.4
100
AcDbLine
 10
203.5303755284981
 20
455.3489642045279
 30
0.0
 11
203.5303755284981
 21
455.192013689028
 31
0.0
  0
LINE
  5
337
330
2
100
AcDbEntity
  8
OUTLINE
  6
CONTINUOUS
 48
25.4
100
AcDbLine
 10
203.4527071054983
 20
455.3356549870279
 30
0.0
 11
203.4527071054983
 21
455.1783227625279
 31
0.0
  0
LINE
  5
338
330
2
100
AcDbEntity
  8
OUTLINE
  6
CONTINUOUS
 48
25.4
100
AcDbLine
 10
203.3750387684983
 20
455.320349796528
 30
0.0
 11
203.3750387684983
 21
455.162641693028
 31
0.0
  0
LINE
  5
339
330
2
100
AcDbEntity
  8
OUTLINE
  6
CONTINUOUS
 48
25.4
100
AcDbLine
 10
203.2585360964982
 20
455.294118173028
 30
0.0
 11
203.2585360964982
 21
455.135956128528
 31
0.0
  0
LINE
  5
33A
330
2
100
AcDbEntity
  8
OUTLINE
  6
CONTINUOUS
 48
25.4
100
AcDbLine
 10
203.1420327779982
 20
455.2646009275281
 30
0.0
 11
203.1420327779982
 21
455.106050646028
 31
0.0
  0
LINE
  5
33B
330
2
100
AcDbEntity
  8
OUTLINE
  6
CONTINUOUS
 48
25.4
100
AcDbLine
 10
202.7041537769983
 20
454.986172595528
 30
0.0
 11
202.2016654854982
 21
454.880698446528
 31
0.0
  0
LINE
  5
33C
330
2
100
AcDbEntity
  8
OUTLINE
  6
CONTINUOUS
 48
25.4
100
AcDbLine
 10
210.5359953529983
 20
455.3308528335279
 30
0.0
 11
210.5078337739982
 21
455.3056513925279
 31
0.0
  0
LINE
  5
33D
330
2
100
AcDbEntity
  8
OUTLINE
  6
CONTINUOUS
 48
25.4
100
AcDbLine
 10
210.5630360554983
 20
455.3568617510278
 30
0.0
 11
210.5359953529983
 21
455.3308528335279
 31
0.0
  0
LINE
  5
33E
330
2
100
AcDbEntity
  8
OUTLINE
  6
CONTINUOUS
 48
25.4
100
AcDbLine
 10
210.5972608219983
 20
455.3927210120279
 30
0.0
 11
210.5630360554983
 21
455.3568617510278
 31
0.0
  0
LINE
  5
33F
330
2
100
AcDbEntity
  8
OUTLINE
  6
CONTINUOUS
 48
25.4
100
AcDbLine
 10
210.6292969014981
 20
455.4298280370278
 30
0.0
 11
210.5972608219983
 21
455.3927210120279
 31
0.0
  0
LINE
  5
340
330
2
100
AcDbEntity
  8
OUTLINE
  6
CONTINUOUS
 48
25.4
100
AcDbLine
 10
210.6590504059981
 20
455.468064920528
 30
0.0
 11
210.6292969014981
 21
455.4298280370278
 31
0.0
  0
LINE
  5
341
330
2
100
AcDbEntity
  8
OUTLINE
  6
CONTINUOUS
 48
25.4
100
AcDbLine
 10
210.6049749819983
 20
455.4638397930282
 30
0.0
 11
210.6590504059981
 21
455.468064920528
 31
0.0
  0
LINE
  5
342
330
2
100
AcDbEntity
  8
OUTLINE
  6
CONTINUOUS
 48
25.4
100
AcDbLine
 10
210.5509002129982
 20
455.460671685028
 30
0.0
 11
210.6049749819983
 21
455.4638397930282
 31
0.0
  0
LINE
  5
343
330
2
100
AcDbEntity
  8
OUTLINE
  6
CONTINUOUS
 48
25.4
100
AcDbLine
 10
210.4788018704982
 20
455.4582164210279
 30
0.0
 11
210.5509002129982
 21
455.460671685028
 31
0.0
  0
LINE
  5
344
330
2
100
AcDbEntity
  8
OUTLINE
  6
CONTINUOUS
 48
25.4
100
AcDbLine
 10
210.4067054854982
 20
455.4579392705282
 30
0.0
 11
210.4788018704982
 21
455.4582164210279
 31
0.0
  0
LINE
  5
345
330
2
100
AcDbEntity
  8
OUTLINE
  6
CONTINUOUS
 48
25.4
100
AcDbLine
 10
210.3346115099983
 20
455.4600107815278
 30
0.0
 11
210.4067054854982
 21
455.4579392705282
 31
0.0
  0
LINE
  5
346
330
2
100
AcDbEntity
  8
OUTLINE
  6
CONTINUOUS
 48
25.4
100
AcDbLine
 10
210.1902655784983
 20
455.4714432465281
 30
0.0
 11
210.3346115099983
 21
455.4600107815278
 31
0.0
  0
LINE
  5
347
330
2
100
AcDbEntity
  8
OUTLINE
  6
CONTINUOUS
 48
25.4
100
AcDbLine
 10
210.0459301674983
 20
455.4915938815279
 30
0.0
 11
210.1902655784983
 21
455.4714432465281
 31
0.0
  0
LINE
  5
348
330
2
100
AcDbEntity
  8
OUTLINE
  6
CONTINUOUS
 48
25.4
100
AcDbLine
 10
209.9016043204982
 20
455.5190788430281
 30
0.0
 11
210.0459301674983
 21
455.4915938815279
 31
0.0
  0
LINE
  5
349
330
2
100
AcDbEntity
  8
OUTLINE
  6
CONTINUOUS
 48
25.4
100
AcDbLine
 10
209.7572870814983
 20
455.552512951028
 30
0.0
 11
209.9016043204982
 21
455.5190788430281
 31
0.0
  0
LINE
  5
34A
330
2
100
AcDbEntity
  8
OUTLINE
  6
CONTINUOUS
 48
25.4
100
AcDbLine
 10
209.6129774934981
 20
455.5905115080281
 30
0.0
 11
209.7572870814983
 21
455.552512951028
 31
0.0
  0
LINE
  5
34B
330
2
100
AcDbEntity
  8
OUTLINE
  6
CONTINUOUS
 48
25.4
100
AcDbLine
 10
209.3724759189983
 20
455.6602313140277
 30
0.0
 11
209.6129774934981
 21
455.5905115080281
 31
0.0
  0
LINE
  5
34C
330
2
100
AcDbEntity
  8
OUTLINE
  6
CONTINUOUS
 48
25.4
100
AcDbLine
 10
209.1319885134983
 20
455.7324086025279
 30
0.0
 11
209.3724759189983
 21
455.6602313140277
 31
0.0
  0
LINE
  5
34D
330
2
100
AcDbEntity
  8
OUTLINE
  6
CONTINUOUS
 48
25.4
100
AcDbLine
 10
208.8915108494981
 20
455.8006915730278
 30
0.0
 11
209.1319885134983
 21
455.7324086025279
 31
0.0
  0
LINE
  5
34E
330
2
100
AcDbEntity
  8
OUTLINE
  6
CONTINUOUS
 48
25.4
100
AcDbLine
 10
208.7472270844983
 20
455.8371610470279
 30
0.0
 11
208.8915108494981
 21
455.8006915730278
 31
0.0
  0
LINE
  5
34F
330
2
100
AcDbEntity
  8
OUTLINE
  6
CONTINUOUS
 48
25.4
100
AcDbLine
 10
208.6029442764983
 20
455.868590833528
 30
0.0
 11
208.7472270844983
 21
455.8371610470279
 31
0.0
  0
LINE
  5
350
330
2
100
AcDbEntity
  8
OUTLINE
  6
CONTINUOUS
 48
25.4
100
AcDbLine
 10
208.4586614679983
 20
455.8936213990278
 30
0.0
 11
208.6029442764983
 21
455.868590833528
 31
0.0
  0
LINE
  5
351
330
2
100
AcDbEntity
  8
OUTLINE
  6
CONTINUOUS
 48
25.4
100
AcDbLine
 10
208.3143777034983
 20
455.9108935620279
 30
0.0
 11
208.4586614679983
 21
455.8936213990278
 31
0.0
  0
LINE
  5
352
330
2
100
AcDbEntity
  8
OUTLINE
  6
CONTINUOUS
 48
25.4
100
AcDbLine
 10
208.1700920259982
 20
455.9190466660282
 30
0.0
 11
208.3143777034983
 21
455.9108935620279
 31
0.0
  0
LINE
  5
353
330
2
100
AcDbEntity
  8
OUTLINE
  6
CONTINUOUS
 48
25.4
100
AcDbLine
 10
208.0258036704983
 20
455.917172571028
 30
0.0
 11
208.1700920259982
 21
455.9190466660282
 31
0.0
  0
LINE
  5
354
330
2
100
AcDbEntity
  8
OUTLINE
  6
CONTINUOUS
 48
25.4
100
AcDbLine
 10
207.8815126369983
 20
455.9061827275278
 30
0.0
 11
208.0258036704983
 21
455.917172571028
 31
0.0
  0
LINE
  5
355
330
2
100
AcDbEntity
  8
OUTLINE
  6
CONTINUOUS
 48
25.4
100
AcDbLine
 10
207.7372191169983
 20
455.8874410520282
 30
0.0
 11
207.8815126369983
 21
455.9061827275278
 31
0.0
  0
LINE
  5
356
330
2
100
AcDbEntity
  8
OUTLINE
  6
CONTINUOUS
 48
25.4
100
AcDbLine
 10
207.5929233014983
 20
455.8623099330278
 30
0.0
 11
207.7372191169983
 21
455.8874410520282
 31
0.0
  0
LINE
  5
357
330
2
100
AcDbEntity
  8
OUTLINE
  6
CONTINUOUS
 48
25.4
100
AcDbLine
 10
207.4486253819983
 20
455.8321520600281
 30
0.0
 11
207.5929233014983
 21
455.8623099330278
 31
0.0
  0
LINE
  5
358
330
2
100
AcDbEntity
  8
OUTLINE
  6
CONTINUOUS
 48
25.4
100
AcDbLine
 10
207.2081246929982
 20
455.774425574028
 30
0.0
 11
207.4486253819983
 21
455.8321520600281
 31
0.0
  0
LINE
  5
359
330
2
100
AcDbEntity
  8
OUTLINE
  6
CONTINUOUS
 48
25.4
100
AcDbLine
 10
206.9676195759983
 20
455.7128633175278
 30
0.0
 11
207.2081246929982
 21
455.774425574028
 31
0.0
  0
LINE
  5
35A
330
2
100
AcDbEntity
  8
OUTLINE
  6
CONTINUOUS
 48
25.4
100
AcDbLine
 10
206.7271109169983
 20
455.653830601028
 30
0.0
 11
206.9676195759983
 21
455.7128633175278
 31
0.0
  0
LINE
  5
35B
330
2
100
AcDbEntity
  8
OUTLINE
  6
CONTINUOUS
 48
25.4
100
AcDbLine
 10
206.5828043894981
 20
455.6222842745278
 30
0.0
 11
206.7271109169983
 21
455.653830601028
 31
0.0
  0
LINE
  5
35C
330
2
100
AcDbEntity
  8
OUTLINE
  6
CONTINUOUS
 48
25.4
100
AcDbLine
 10
206.4384970969983
 20
455.595335649028
 30
0.0
 11
206.5828043894981
 21
455.6222842745278
 31
0.0
  0
LINE
  5
35D
330
2
100
AcDbEntity
  8
OUTLINE
  6
CONTINUOUS
 48
25.4
100
AcDbLine
 10
206.2941892309983
 20
455.574371973028
 30
0.0
 11
206.4384970969983
 21
455.595335649028
 31
0.0
  0
LINE
  5
35E
330
2
100
AcDbEntity
  8
OUTLINE
  6
CONTINUOUS
 48
25.4
100
AcDbLine
 10
206.1498809819981
 20
455.5607808570279
 30
0.0
 11
206.2941892309983
 21
455.574371973028
 31
0.0
  0
LINE
  5
35F
330
2
100
AcDbEntity
  8
OUTLINE
  6
CONTINUOUS
 48
25.4
100
AcDbLine
 10
206.0055725419981
 20
455.555948449528
 30
0.0
 11
206.1498809819981
 21
455.5607808570279
 31
0.0
  0
LINE
  5
360
330
2
100
AcDbEntity
  8
OUTLINE
  6
CONTINUOUS
 48
25.4
100
AcDbLine
 10
205.8612641014982
 20
455.5607972660279
 30
0.0
 11
206.0055725419981
 21
455.555948449528
 31
0.0
  0
LINE
  5
361
330
2
100
AcDbEntity
  8
OUTLINE
  6
CONTINUOUS
 48
25.4
100
AcDbLine
 10
205.7169558529983
 20
455.5744047905278
 30
0.0
 11
205.8612641014982
 21
455.5607972660279
 31
0.0
  0
LINE
  5
362
330
2
100
AcDbEntity
  8
OUTLINE
  6
CONTINUOUS
 48
25.4
100
AcDbLine
 10
205.5726479864983
 20
455.595384873028
 30
0.0
 11
205.7169558529983
 21
455.5744047905278
 31
0.0
  0
LINE
  5
363
330
2
100
AcDbEntity
  8
OUTLINE
  6
CONTINUOUS
 48
25.4
100
AcDbLine
 10
205.4283406939982
 20
455.6223499030279
 30
0.0
 11
205.5726479864983
 21
455.595384873028
 31
0.0
  0
LINE
  5
364
330
2
100
AcDbEntity
  8
OUTLINE
  6
CONTINUOUS
 48
25.4
100
AcDbLine
 10
205.2840341664982
 20
455.6539126310282
 30
0.0
 11
205.4283406939982
 21
455.6223499030279
 31
0.0
  0
LINE
  5
365
330
2
100
AcDbEntity
  8
OUTLINE
  6
CONTINUOUS
 48
25.4
100
AcDbLine
 10
205.0435255074983
 20
455.7129726780281
 30
0.0
 11
205.2840341664982
 21
455.6539126310282
 31
0.0
  0
LINE
  5
366
330
2
100
AcDbEntity
  8
OUTLINE
  6
CONTINUOUS
 48
25.4
100
AcDbLine
 10
204.8030203909982
 20
455.7745622595279
 30
0.0
 11
205.0435255074983
 21
455.7129726780281
 31
0.0
  0
LINE
  5
367
330
2
100
AcDbEntity
  8
OUTLINE
  6
CONTINUOUS
 48
25.4
100
AcDbLine
 10
204.5625197019981
 20
455.8323160670282
 30
0.0
 11
204.8030203909982
 21
455.7745622595279
 31
0.0
  0
LINE
  5
368
330
2
100
AcDbEntity
  8
OUTLINE
  6
CONTINUOUS
 48
25.4
100
AcDbLine
 10
204.4182217824983
 20
455.862490333528
 30
0.0
 11
204.5625197019981
 21
455.8323160670282
 31
0.0
  0
LINE
  5
369
330
2
100
AcDbEntity
  8
OUTLINE
  6
CONTINUOUS
 48
25.4
100
AcDbLine
 10
204.2739259669983
 20
455.8876378480281
 30
0.0
 11
204.4182217824983
 21
455.862490333528
 31
0.0
  0
LINE
  5
36A
330
2
100
AcDbEntity
  8
OUTLINE
  6
CONTINUOUS
 48
25.4
100
AcDbLine
 10
204.1296324464981
 20
455.906395922028
 30
0.0
 11
204.2739259669983
 21
455.8876378480281
 31
0.0
  0
LINE
  5
36B
330
2
100
AcDbEntity
  8
OUTLINE
  6
CONTINUOUS
 48
25.4
100
AcDbLine
 10
203.9853414134983
 20
455.9174021685279
 30
0.0
 11
204.1296324464981
 21
455.906395922028
 31
0.0
  0
LINE
  5
36C
330
2
100
AcDbEntity
  8
OUTLINE
  6
CONTINUOUS
 48
25.4
100
AcDbLine
 10
203.8410530579982
 20
455.9192926735279
 30
0.0
 11
203.9853414134983
 21
455.9174021685279
 31
0.0
  0
LINE
  5
36D
330
2
100
AcDbEntity
  8
OUTLINE
  6
CONTINUOUS
 48
25.4
100
AcDbLine
 10
203.6967673804983
 20
455.911155988528
 30
0.0
 11
203.8410530579982
 21
455.9192926735279
 31
0.0
  0
LINE
  5
36E
330
2
100
AcDbEntity
  8
OUTLINE
  6
CONTINUOUS
 48
25.4
100
AcDbLine
 10
203.5524836154983
 20
455.893900253028
 30
0.0
 11
203.6967673804983
 21
455.911155988528
 31
0.0
  0
LINE
  5
36F
330
2
100
AcDbEntity
  8
OUTLINE
  6
CONTINUOUS
 48
25.4
100
AcDbLine
 10
203.4082008074983
 20
455.8688861250281
 30
0.0
 11
203.5524836154983
 21
455.893900253028
 31
0.0
  0
LINE
  5
370
330
2
100
AcDbEntity
  8
OUTLINE
  6
CONTINUOUS
 48
25.4
100
AcDbLine
 10
203.2639179989983
 20
455.837472786028
 30
0.0
 11
203.4082008074983
 21
455.8688861250281
 31
0.0
  0
LINE
  5
371
330
2
100
AcDbEntity
  8
OUTLINE
  6
CONTINUOUS
 48
25.4
100
AcDbLine
 10
203.1196342344983
 20
455.801019769528
 30
0.0
 11
203.2639179989983
 21
455.837472786028
 31
0.0
  0
LINE
  5
372
330
2
100
AcDbEntity
  8
OUTLINE
  6
CONTINUOUS
 48
25.4
100
AcDbLine
 10
202.8791565704983
 20
455.7327642505278
 30
0.0
 11
203.1196342344983
 21
455.801019769528
 31
0.0
  0
LINE
  5
373
330
2
100
AcDbEntity
  8
OUTLINE
  6
CONTINUOUS
 48
25.4
100
AcDbLine
 10
202.6386691649983
 20
455.660614438028
 30
0.0
 11
202.8791565704983
 21
455.7327642505278
 31
0.0
  0
LINE
  5
374
330
2
100
AcDbEntity
  8
OUTLINE
  6
CONTINUOUS
 48
25.4
100
AcDbLine
 10
202.3981675904983
 20
455.5909221295279
 30
0.0
 11
202.6386691649983
 21
455.660614438028
 31
0.0
  0
LINE
  5
375
330
2
100
AcDbEntity
  8
OUTLINE
  6
CONTINUOUS
 48
25.4
100
AcDbLine
 10
202.2538580024981
 20
455.5529400785281
 30
0.0
 11
202.3981675904983
 21
455.5909221295279
 31
0.0
  0
LINE
  5
376
330
2
100
AcDbEntity
  8
OUTLINE
  6
CONTINUOUS
 48
25.4
100
AcDbLine
 10
202.1095407634982
 20
455.5195224800278
 30
0.0
 11
202.2538580024981
 21
455.5529400785281
 31
0.0
  0
LINE
  5
377
330
2
100
AcDbEntity
  8
OUTLINE
  6
CONTINUOUS
 48
25.4
100
AcDbLine
 10
201.9652149164981
 20
455.4920540305281
 30
0.0
 11
202.1095407634982
 21
455.5195224800278
 31
0.0
  0
LINE
  5
378
330
2
100
AcDbEntity
  8
OUTLINE
  6
CONTINUOUS
 48
25.4
100
AcDbLine
 10
201.8208795054983
 20
455.4719199060278
 30
0.0
 11
201.9652149164981
 21
455.4920540305281
 31
0.0
  0
LINE
  5
379
330
2
100
AcDbEntity
  8
OUTLINE
  6
CONTINUOUS
 48
25.4
100
AcDbLine
 10
201.6765335739982
 20
455.4605039495278
 30
0.0
 11
201.8208795054983
 21
455.4719199060278
 31
0.0
  0
LINE
  5
37A
330
2
100
AcDbEntity
  8
OUTLINE
  6
CONTINUOUS
 48
25.4
100
AcDbLine
 10
201.6224633359982
 20
455.458729655028
 30
0.0
 11
201.6765335739982
 21
455.4605039495278
 31
0.0
  0
LINE
  5
37B
330
2
100
AcDbEntity
  8
OUTLINE
  6
CONTINUOUS
 48
25.4
100
AcDbLine
 10
201.5683916789983
 20
455.458300447028
 30
0.0
 11
201.6224633359982
 21
455.458729655028
 31
0.0
  0
LINE
  5
37C
330
2
100
AcDbEntity
  8
OUTLINE
  6
CONTINUOUS
 48
25.4
100
AcDbLine
 10
201.4962942584983
 20
455.4596962300278
 30
0.0
 11
201.5683916789983
 21
455.458300447028
 31
0.0
  0
LINE
  5
37D
330
2
100
AcDbEntity
  8
OUTLINE
  6
CONTINUOUS
 48
25.4
100
AcDbLine
 10
201.4241951069983
 20
455.4631847600281
 30
0.0
 11
201.4962942584983
 21
455.4596962300278
 31
0.0
  0
LINE
  5
37E
330
2
100
AcDbEntity
  8
OUTLINE
  6
CONTINUOUS
 48
25.4
100
AcDbLine
 10
201.3520946779983
 20
455.4685951700279
 30
0.0
 11
201.4241951069983
 21
455.4631847600281
 31
0.0
  0
LINE
  5
37F
330
2
100
AcDbEntity
  8
OUTLINE
  6
CONTINUOUS
 48
25.4
100
AcDbLine
 10
201.3741924604983
 20
455.439813849528
 30
0.0
 11
201.3520946779983
 21
455.4685951700279
 31
0.0
  0
LINE
  5
380
330
2
100
AcDbEntity
  8
OUTLINE
  6
CONTINUOUS
 48
25.4
100
AcDbLine
 10
201.3975864369981
 20
455.411650882528
 30
0.0
 11
201.3741924604983
 21
455.439813849528
 31
0.0
  0
LINE
  5
381
330
2
100
AcDbEntity
  8
OUTLINE
  6
CONTINUOUS
 48
25.4
100
AcDbLine
 10
201.4307294719983
 20
455.375149706028
 30
0.0
 11
201.3975864369981
 21
455.411650882528
 31
0.0
  0
LINE
  5
382
330
2
100
AcDbEntity
  8
OUTLINE
  6
CONTINUOUS
 48
25.4
100
AcDbLine
 10
201.4660090719981
 20
455.3399522295279
 30
0.0
 11
201.4307294719983
 21
455.375149706028
 31
0.0
  0
LINE
  5
383
330
2
100
AcDbEntity
  8
OUTLINE
  6
CONTINUOUS
 48
25.4
100
AcDbLine
 10
201.5033113099983
 20
455.306164565028
 30
0.0
 11
201.4660090719981
 21
455.3399522295279
 31
0.0
  0
LINE
  5
384
330
2
100
AcDbEntity
  8
OUTLINE
  6
CONTINUOUS
 48
25.4
100
AcDbLine
 10
201.5658089639983
 20
455.3046180770281
 30
0.0
 11
201.5033113099983
 21
455.306164565028
 31
0.0
  0
LINE
  5
385
330
2
100
AcDbEntity
  8
OUTLINE
  6
CONTINUOUS
 48
25.4
100
AcDbLine
 10
201.6283050569982
 20
455.304747693028
 30
0.0
 11
201.5658089639983
 21
455.3046180770281
 31
0.0
  0
LINE
  5
386
330
2
100
AcDbEntity
  8
OUTLINE
  6
CONTINUOUS
 48
25.4
100
AcDbLine
 10
201.6907992939983
 20
455.306664811028
 30
0.0
 11
201.6283050569982
 21
455.304747693028
 31
0.0
  0
LINE
  5
387
330
2
100
AcDbEntity
  8
OUTLINE
  6
CONTINUOUS
 48
25.4
100
AcDbLine
 10
201.8351452254981
 20
455.318078017528
 30
0.0
 11
201.6907992939983
 21
455.306664811028
 31
0.0
  0
LINE
  5
388
330
2
100
AcDbEntity
  8
OUTLINE
  6
CONTINUOUS
 48
25.4
100
AcDbLine
 10
201.9794806364982
 20
455.3382368900279
 30
0.0
 11
201.8351452254981
 21
455.318078017528
 31
0.0
  0
LINE
  5
389
330
2
100
AcDbEntity
  8
OUTLINE
  6
CONTINUOUS
 48
25.4
100
AcDbLine
 10
202.1238064834983
 20
455.3657533145281
 30
0.0
 11
201.9794806364982
 21
455.3382368900279
 31
0.0
  0
LINE
  5
38A
330
2
100
AcDbEntity
  8
OUTLINE
  6
CONTINUOUS
 48
25.4
100
AcDbLine
 10
202.2681237224983
 20
455.3992378430281
 30
0.0
 11
202.1238064834983
 21
455.3657533145281
 31
0.0
  0
LINE
  5
38B
330
2
100
AcDbEntity
  8
OUTLINE
  6
CONTINUOUS
 48
25.4
100
AcDbLine
 10
202.4124333104983
 20
455.4373015105282
 30
0.0
 11
202.2681237224983
 21
455.3992378430281
 31
0.0
  0
LINE
  5
38C
330
2
100
AcDbEntity
  8
OUTLINE
  6
CONTINUOUS
 48
25.4
100
AcDbLine
 10
202.6529348849983
 20
455.507150909028
 30
0.0
 11
202.4124333104983
 21
455.4373015105282
 31
0.0
  0
LINE
  5
38D
330
2
100
AcDbEntity
  8
OUTLINE
  6
CONTINUOUS
 48
25.4
100
AcDbLine
 10
202.8934222904982
 20
455.579467080528
 30
0.0
 11
202.6529348849983
 21
455.507150909028
 31
0.0
  0
LINE
  5
38E
330
2
100
AcDbEntity
  8
OUTLINE
  6
CONTINUOUS
 48
25.4
100
AcDbLine
 10
203.1338999544983
 20
455.6478785995278
 30
0.0
 11
202.8934222904982
 21
455.579467080528
 31
0.0
  0
LINE
  5
38F
330
2
100
AcDbEntity
  8
OUTLINE
  6
CONTINUOUS
 48
25.4
100
AcDbLine
 10
203.2781837189983
 20
455.6844121010279
 30
0.0
 11
203.1338999544983
 21
455.6478785995278
 31
0.0
  0
LINE
  5
390
330
2
100
AcDbEntity
  8
OUTLINE
  6
CONTINUOUS
 48
25.4
100
AcDbLine
 10
203.4224665274983
 20
455.7158909310279
 30
0.0
 11
203.2781837189983
 21
455.6844121010279
 31
0.0
  0
LINE
  5
391
330
2
100
AcDbEntity
  8
OUTLINE
  6
CONTINUOUS
 48
25.4
100
AcDbLine
 10
203.5667493354983
 20
455.740951341028
 30
0.0
 11
203.4224665274983
 21
455.7158909310279
 31
0.0
  0
LINE
  5
392
330
2
100
AcDbEntity
  8
OUTLINE
  6
CONTINUOUS
 48
25.4
100
AcDbLine
 10
203.7110331004983
 20
455.7582299350281
 30
0.0
 11
203.5667493354983
 21
455.740951341028
 31
0.0
  0
LINE
  5
393
330
2
100
AcDbEntity
  8
OUTLINE
  6
CONTINUOUS
 48
25.4
100
AcDbLine
 10
203.8553187779983
 20
455.7663618385281
 30
0.0
 11
203.7110331004983
 21
455.7582299350281
 31
0.0
  0
LINE
  5
394
330
2
100
AcDbEntity
  8
OUTLINE
  6
CONTINUOUS
 48
25.4
100
AcDbLine
 10
203.9986562089983
 20
455.7644802285279
 30
0.0
 11
203.8553187779983
 21
455.7663618385281
 31
0.0
  0
LINE
  5
395
330
2
100
AcDbEntity
  8
OUTLINE
  6
CONTINUOUS
 48
25.4
100
AcDbLine
 10
204.1419962839981
 20
455.753566470528
 30
0.0
 11
203.9986562089983
 21
455.7644802285279
 31
0.0
  0
LINE
  5
396
330
2
100
AcDbEntity
  8
OUTLINE
  6
CONTINUOUS
 48
25.4
100
AcDbLine
 10
204.2853388154983
 20
455.7349618605281
 30
0.0
 11
204.1419962839981
 21
455.753566470528
 31
0.0
  0
LINE
  5
397
330
2
100
AcDbEntity
  8
OUTLINE
  6
CONTINUOUS
 48
25.4
100
AcDbLine
 10
204.4286836159983
 20
455.7100061780278
 30
0.0
 11
204.2853388154983
 21
455.7349618605281
 31
0.0
  0
LINE
  5
398
330
2
100
AcDbEntity
  8
OUTLINE
  6
CONTINUOUS
 48
25.4
100
AcDbLine
 10
204.5720304979982
 20
455.6800394650281
 30
0.0
 11
204.4286836159983
 21
455.7100061780278
 31
0.0
  0
LINE
  5
399
330
2
100
AcDbEntity
  8
OUTLINE
  6
CONTINUOUS
 48
25.4
100
AcDbLine
 10
204.8109460839981
 20
455.6226047520281
 30
0.0
 11
204.5720304979982
 21
455.6800394650281
 31
0.0
  0
LINE
  5
39A
330
2
100
AcDbEntity
  8
OUTLINE
  6
CONTINUOUS
 48
25.4
100
AcDbLine
 10
205.0498660629983
 20
455.5612089345278
 30
0.0
 11
204.8109460839981
 21
455.6226047520281
 31
0.0
  0
LINE
  5
39B
330
2
100
AcDbEntity
  8
OUTLINE
  6
CONTINUOUS
 48
25.4
100
AcDbLine
 10
205.2887895664983
 20
455.502110671528
 30
0.0
 11
205.0498660629983
 21
455.5612089345278
 31
0.0
  0
LINE
  5
39C
330
2
100
AcDbEntity
  8
OUTLINE
  6
CONTINUOUS
 48
25.4
100
AcDbLine
 10
205.4321449989982
 20
455.470369066528
 30
0.0
 11
205.2887895664983
 21
455.502110671528
 31
0.0
  0
LINE
  5
39D
330
2
100
AcDbEntity
  8
OUTLINE
  6
CONTINUOUS
 48
25.4
100
AcDbLine
 10
205.5755012004981
 20
455.4430798470279
 30
0.0
 11
205.4321449989982
 21
455.470369066528
 31
0.0
  0
LINE
  5
39E
330
2
100
AcDbEntity
  8
OUTLINE
  6
CONTINUOUS
 48
25.4
100
AcDbLine
 10
205.7188579829982
 20
455.4216071095279
 30
0.0
 11
205.5755012004981
 21
455.4430798470279
 31
0.0
  0
LINE
  5
39F
330
2
100
AcDbEntity
  8
OUTLINE
  6
CONTINUOUS
 48
25.4
100
AcDbLine
 10
205.8622151594981
 20
455.4073154310279
 30
0.0
 11
205.7188579829982
 21
455.4216071095279
 31
0.0
  0
LINE
  5
3A0
330
2
100
AcDbEntity
  8
OUTLINE
  6
CONTINUOUS
 48
25.4
100
AcDbLine
 10
206.0055725419981
 20
455.4015681305282
 30
0.0
 11
205.8622151594981
 21
455.4073154310279
 31
0.0
  0
LINE
  5
3A1
330
2
100
AcDbEntity
  8
OUTLINE
  6
CONTINUOUS
 48
25.4
100
AcDbLine
 10
206.1489299244982
 20
455.407299123528
 30
0.0
 11
206.0055725419981
 21
455.4015681305282
 31
0.0
  0
LINE
  5
3A2
330
2
100
AcDbEntity
  8
OUTLINE
  6
CONTINUOUS
 48
25.4
100
AcDbLine
 10
206.2922871004983
 20
455.421574495528
 30
0.0
 11
206.1489299244982
 21
455.407299123528
 31
0.0
  0
LINE
  5
3A3
330
2
100
AcDbEntity
  8
OUTLINE
  6
CONTINUOUS
 48
25.4
100
AcDbLine
 10
206.4356438834983
 20
455.443030928528
 30
0.0
 11
206.2922871004983
 21
455.421574495528
 31
0.0
  0
LINE
  5
3A4
330
2
100
AcDbEntity
  8
OUTLINE
  6
CONTINUOUS
 48
25.4
100
AcDbLine
 10
206.5790000849981
 20
455.4703038455281
 30
0.0
 11
206.4356438834983
 21
455.443030928528
 31
0.0
  0
LINE
  5
3A5
330
2
100
AcDbEntity
  8
OUTLINE
  6
CONTINUOUS
 48
25.4
100
AcDbLine
 10
206.7223555174983
 20
455.5020291510281
 30
0.0
 11
206.5790000849981
 21
455.4703038455281
 31
0.0
  0
LINE
  5
3A6
330
2
100
AcDbEntity
  8
OUTLINE
  6
CONTINUOUS
 48
25.4
100
AcDbLine
 10
206.9612790204983
 20
455.5611002535281
 30
0.0
 11
206.7223555174983
 21
455.5020291510281
 31
0.0
  0
LINE
  5
3A7
330
2
100
AcDbEntity
  8
OUTLINE
  6
CONTINUOUS
 48
25.4
100
AcDbLine
 10
207.2001989994983
 20
455.6224689170281
 30
0.0
 11
206.9612790204983
 21
455.5611002535281
 31
0.0
  0
LINE
  5
3A8
330
2
100
AcDbEntity
  8
OUTLINE
  6
CONTINUOUS
 48
25.4
100
AcDbLine
 10
207.4391145854983
 20
455.6798764780277
 30
0.0
 11
207.2001989994983
 21
455.6224689170281
 31
0.0
  0
LINE
  5
3A9
330
2
100
AcDbEntity
  8
OUTLINE
  6
CONTINUOUS
 48
25.4
100
AcDbLine
 10
207.5824614674981
 20
455.709826900028
 30
0.0
 11
207.4391145854983
 21
455.6798764780277
 31
0.0
  0
LINE
  5
3AA
330
2
100
AcDbEntity
  8
OUTLINE
  6
CONTINUOUS
 48
25.4
100
AcDbLine
 10
207.7258062679983
 20
455.734766289528
 30
0.0
 11
207.5824614674981
 21
455.709826900028
 31
0.0
  0
LINE
  5
3AB
330
2
100
AcDbEntity
  8
OUTLINE
  6
CONTINUOUS
 48
25.4
100
AcDbLine
 10
207.8691487999983
 20
455.7533546035281
 30
0.0
 11
207.7258062679983
 21
455.734766289528
 31
0.0
  0
LINE
  5
3AC
330
2
100
AcDbEntity
  8
OUTLINE
  6
CONTINUOUS
 48
25.4
100
AcDbLine
 10
208.0124888749983
 20
455.7642520610278
 30
0.0
 11
207.8691487999983
 21
455.7533546035281
 31
0.0
  0
LINE
  5
3AD
330
2
100
AcDbEntity
  8
OUTLINE
  6
CONTINUOUS
 48
25.4
100
AcDbLine
 10
208.1558263059983
 20
455.7661173635279
 30
0.0
 11
208.0124888749983
 21
455.7642520610278
 31
0.0
  0
LINE
  5
3AE
330
2
100
AcDbEntity
  8
OUTLINE
  6
CONTINUOUS
 48
25.4
100
AcDbLine
 10
208.3001119834983
 20
455.757969035528
 30
0.0
 11
208.1558263059983
 21
455.7661173635279
 31
0.0
  0
LINE
  5
3AF
330
2
100
AcDbEntity
  8
OUTLINE
  6
CONTINUOUS
 48
25.4
100
AcDbLine
 10
208.4443957479983
 20
455.740674007528
 30
0.0
 11
208.3001119834983
 21
455.757969035528
 31
0.0
  0
LINE
  5
3B0
330
2
100
AcDbEntity
  8
OUTLINE
  6
CONTINUOUS
 48
25.4
100
AcDbLine
 10
208.5886785564983
 20
455.715597154028
 30
0.0
 11
208.4443957479983
 21
455.740674007528
 31
0.0
  0
LINE
  5
3B1
330
2
100
AcDbEntity
  8
OUTLINE
  6
CONTINUOUS
 48
25.4
100
AcDbLine
 10
208.7329613644983
 20
455.6841018705278
 30
0.0
 11
208.5886785564983
 21
455.715597154028
 31
0.0
  0
LINE
  5
3B2
330
2
100
AcDbEntity
  8
OUTLINE
  6
CONTINUOUS
 48
25.4
100
AcDbLine
 10
208.8772451294983
 20
455.6475519045282
 30
0.0
 11
208.7329613644983
 21
455.6841018705278
 31
0.0
  0
LINE
  5
3B3
330
2
100
AcDbEntity
  8
OUTLINE
  6
CONTINUOUS
 48
25.4
100
AcDbLine
 10
209.1177227934982
 20
455.5791129235278
 30
0.0
 11
208.8772451294983
 21
455.6475519045282
 31
0.0
  0
LINE
  5
3B4
330
2
100
AcDbEntity
  8
OUTLINE
  6
CONTINUOUS
 48
25.4
100
AcDbLine
 10
209.3582101989983
 20
455.5067692645281
 30
0.0
 11
209.1177227934982
 21
455.5791129235278
 31
0.0
  0
LINE
  5
3B5
330
2
100
AcDbEntity
  8
OUTLINE
  6
CONTINUOUS
 48
25.4
100
AcDbLine
 10
209.5987117734983
 20
455.4368923570279
 30
0.0
 11
209.3582101989983
 21
455.5067692645281
 31
0.0
  0
LINE
  5
3B6
330
2
100
AcDbEntity
  8
OUTLINE
  6
CONTINUOUS
 48
25.4
100
AcDbLine
 10
209.7430213614983
 20
455.398812177028
 30
0.0
 11
209.5987117734983
 21
455.4368923570279
 31
0.0
  0
LINE
  5
3B7
330
2
100
AcDbEntity
  8
OUTLINE
  6
CONTINUOUS
 48
25.4
100
AcDbLine
 10
209.8873386004983
 20
455.3653111320281
 30
0.0
 11
209.7430213614983
 21
455.398812177028
 31
0.0
  0
LINE
  5
3B8
330
2
100
AcDbEntity
  8
OUTLINE
  6
CONTINUOUS
 48
25.4
100
AcDbLine
 10
210.0316644474983
 20
455.3377781895281
 30
0.0
 11
209.8873386004983
 21
455.3653111320281
 31
0.0
  0
LINE
  5
3B9
330
2
100
AcDbEntity
  8
OUTLINE
  6
CONTINUOUS
 48
25.4
100
AcDbLine
 10
210.1759998584983
 20
455.3176027995279
 30
0.0
 11
210.0316644474983
 21
455.3377781895281
 31
0.0
  0
LINE
  5
3BA
330
2
100
AcDbEntity
  8
OUTLINE
  6
CONTINUOUS
 48
25.4
100
AcDbLine
 10
210.3203457899981
 20
455.3061730785279
 30
0.0
 11
210.1759998584983
 21
455.3176027995279
 31
0.0
  0
LINE
  5
3BB
330
2
100
AcDbEntity
  8
OUTLINE
  6
CONTINUOUS
 48
25.4
100
AcDbLine
 10
210.3828400264981
 20
455.3042488130278
 30
0.0
 11
210.3203457899981
 21
455.3061730785279
 31
0.0
  0
LINE
  5
3BC
330
2
100
AcDbEntity
  8
OUTLINE
  6
CONTINUOUS
 48
25.4
100
AcDbLine
 10
210.4453361194983
 20
455.3041120500281
 30
0.0
 11
210.3828400264981
 21
455.3042488130278
 31
0.0
  0
LINE
  5
3BD
330
2
100
AcDbEntity
  8
OUTLINE
  6
CONTINUOUS
 48
25.4
100
AcDbLine
 10
210.5078337739982
 20
455.3056513925279
 30
0.0
 11
210.4453361194983
 21
455.3041120500281
 31
0.0
  0
LINE
  5
3BE
330
2
100
AcDbEntity
  8
OUTLINE
  6
CONTINUOUS
 48
25.4
100
AcDbLine
 10
201.4241951069983
 20
455.4631847600281
 30
0.0
 11
201.4241951069983
 21
455.3823461500281
 31
0.0
  0
LINE
  5
3BF
330
2
100
AcDbEntity
  8
OUTLINE
  6
CONTINUOUS
 48
25.4
100
AcDbLine
 10
201.4962942584983
 20
455.4596962300278
 30
0.0
 11
201.4962942584983
 21
455.3070357615278
 31
0.0
  0
LINE
  5
3C0
330
2
100
AcDbEntity
  8
OUTLINE
  6
CONTINUOUS
 48
25.4
100
AcDbLine
 10
201.5683916789983
 20
455.458300447028
 30
0.0
 11
201.5683916789983
 21
455.3046234335281
 31
0.0
  0
LINE
  5
3C1
330
2
100
AcDbEntity
  8
OUTLINE
  6
CONTINUOUS
 48
25.4
100
AcDbLine
 10
201.6224633359982
 20
455.458729655028
 30
0.0
 11
201.6224633359982
 21
455.3047355775281
 31
0.0
  0
LINE
  5
3C2
330
2
100
AcDbEntity
  8
OUTLINE
  6
CONTINUOUS
 48
25.4
100
AcDbLine
 10
201.6765335739982
 20
455.4605039495278
 30
0.0
 11
201.6765335739982
 21
455.3062271855281
 31
0.0
  0
LINE
  5
3C3
330
2
100
AcDbEntity
  8
OUTLINE
  6
CONTINUOUS
 48
25.4
100
AcDbLine
 10
201.8208795054983
 20
455.4719199060278
 30
0.0
 11
201.8208795054983
 21
455.3169500495279
 31
0.0
  0
LINE
  5
3C4
330
2
100
AcDbEntity
  8
OUTLINE
  6
CONTINUOUS
 48
25.4
100
AcDbLine
 10
201.9652149164981
 20
455.4920540305281
 30
0.0
 11
201.9652149164981
 21
455.3362444420281
 31
0.0
  0
LINE
  5
3C5
330
2
100
AcDbEntity
  8
OUTLINE
  6
CONTINUOUS
 48
25.4
100
AcDbLine
 10
202.1095407634982
 20
455.5195224800278
 30
0.0
 11
202.1095407634982
 21
455.3630334855281
 31
0.0
  0
LINE
  5
3C6
330
2
100
AcDbEntity
  8
OUTLINE
  6
CONTINUOUS
 48
25.4
100
AcDbLine
 10
202.2538580024981
 20
455.5529400785281
 30
0.0
 11
202.2538580024981
 21
455.395927906528
 31
0.0
  0
LINE
  5
3C7
330
2
100
AcDbEntity
  8
OUTLINE
  6
CONTINUOUS
 48
25.4
100
AcDbLine
 10
202.3981675904983
 20
455.5909221295279
 30
0.0
 11
202.3981675904983
 21
455.4335387280278
 31
0.0
  0
LINE
  5
3C8
330
2
100
AcDbEntity
  8
OUTLINE
  6
CONTINUOUS
 48
25.4
100
AcDbLine
 10
202.6386691649983
 20
455.660614438028
 30
0.0
 11
202.6386691649983
 21
455.5030076850281
 31
0.0
  0
LINE
  5
3C9
330
2
100
AcDbEntity
  8
OUTLINE
  6
CONTINUOUS
 48
25.4
100
AcDbLine
 10
202.8791565704983
 20
455.7327642505278
 30
0.0
 11
202.8791565704983
 21
455.5751772830281
 31
0.0
  0
LINE
  5
3CA
330
2
100
AcDbEntity
  8
OUTLINE
  6
CONTINUOUS
 48
25.4
100
AcDbLine
 10
203.1196342344983
 20
455.801019769528
 30
0.0
 11
203.1196342344983
 21
455.6438202620281
 31
0.0
  0
LINE
  5
3CB
330
2
100
AcDbEntity
  8
OUTLINE
  6
CONTINUOUS
 48
25.4
100
AcDbLine
 10
203.2639179989983
 20
455.837472786028
 30
0.0
 11
203.2639179989983
 21
455.680799936528
 31
0.0
  0
LINE
  5
3CC
330
2
100
AcDbEntity
  8
OUTLINE
  6
CONTINUOUS
 48
25.4
100
AcDbLine
 10
203.4082008074983
 20
455.8688861250281
 30
0.0
 11
203.4082008074983
 21
455.712778515028
 31
0.0
  0
LINE
  5
3CD
330
2
100
AcDbEntity
  8
OUTLINE
  6
CONTINUOUS
 48
25.4
100
AcDbLine
 10
203.5524836154983
 20
455.893900253028
 30
0.0
 11
203.5524836154983
 21
455.738473535028
 31
0.0
  0
LINE
  5
3CE
330
2
100
AcDbEntity
  8
OUTLINE
  6
CONTINUOUS
 48
25.4
100
AcDbLine
 10
203.6967673804983
 20
455.911155988528
 30
0.0
 11
203.6967673804983
 21
455.7565215545279
 31
0.0
  0
LINE
  5
3CF
330
2
100
AcDbEntity
  8
OUTLINE
  6
CONTINUOUS
 48
25.4
100
AcDbLine
 10
203.8410530579982
 20
455.9192926735279
 30
0.0
 11
203.8410530579982
 21
455.765557826528
 31
0.0
  0
LINE
  5
3D0
330
2
100
AcDbEntity
  8
OUTLINE
  6
CONTINUOUS
 48
25.4
100
AcDbLine
 10
203.9853414134983
 20
455.9174021685279
 30
0.0
 11
203.9853414134983
 21
455.764655014028
 31
0.0
  0
LINE
  5
3D1
330
2
100
AcDbEntity
  8
OUTLINE
  6
CONTINUOUS
 48
25.4
100
AcDbLine
 10
204.1296324464981
 20
455.906395922028
 30
0.0
 11
204.1296324464981
 21
455.7545078395279
 31
0.0
  0
LINE
  5
3D2
330
2
100
AcDbEntity
  8
OUTLINE
  6
CONTINUOUS
 48
25.4
100
AcDbLine
 10
204.2739259669983
 20
455.8876378480281
 30
0.0
 11
204.2739259669983
 21
455.736443148528
 31
0.0
  0
LINE
  5
3D3
330
2
100
AcDbEntity
  8
OUTLINE
  6
CONTINUOUS
 48
25.4
100
AcDbLine
 10
204.4182217824983
 20
455.862490333528
 30
0.0
 11
204.4182217824983
 21
455.7118275360278
 31
0.0
  0
LINE
  5
3D4
330
2
100
AcDbEntity
  8
OUTLINE
  6
CONTINUOUS
 48
25.4
100
AcDbLine
 10
204.5625197019981
 20
455.8323160670282
 30
0.0
 11
204.5625197019981
 21
455.6820277000281
 31
0.0
  0
LINE
  5
3D5
330
2
100
AcDbEntity
  8
OUTLINE
  6
CONTINUOUS
 48
25.4
100
AcDbLine
 10
204.8030203909982
 20
455.7745622595279
 30
0.0
 11
204.8030203909982
 21
455.624510069028
 31
0.0
  0
LINE
  5
3D6
330
2
100
AcDbEntity
  8
OUTLINE
  6
CONTINUOUS
 48
25.4
100
AcDbLine
 10
205.0435255074983
 20
455.7129726780281
 30
0.0
 11
205.0435255074983
 21
455.5628382820279
 31
0.0
  0
LINE
  5
3D7
330
2
100
AcDbEntity
  8
OUTLINE
  6
CONTINUOUS
 48
25.4
100
AcDbLine
 10
205.2840341664982
 20
455.6539126310282
 30
0.0
 11
205.2840341664982
 21
455.503286930028
 31
0.0
  0
LINE
  5
3D8
330
2
100
AcDbEntity
  8
OUTLINE
  6
CONTINUOUS
 48
25.4
100
AcDbLine
 10
205.4283406939982
 20
455.6223499030279
 30
0.0
 11
205.4283406939982
 21
455.4712114115281
 31
0.0
  0
LINE
  5
3D9
330
2
100
AcDbEntity
  8
OUTLINE
  6
CONTINUOUS
 48
25.4
100
AcDbLine
 10
205.5726479864983
 20
455.595384873028
 30
0.0
 11
205.5726479864983
 21
455.4436229835279
 31
0.0
  0
LINE
  5
3DA
330
2
100
AcDbEntity
  8
OUTLINE
  6
CONTINUOUS
 48
25.4
100
AcDbLine
 10
205.7169558529983
 20
455.5744047905278
 30
0.0
 11
205.7169558529983
 21
455.421892020528
 31
0.0
  0
LINE
  5
3DB
330
2
100
AcDbEntity
  8
OUTLINE
  6
CONTINUOUS
 48
25.4
100
AcDbLine
 10
205.8612641014982
 20
455.5607972660279
 30
0.0
 11
205.8612641014982
 21
455.4074102450278
 31
0.0
  0
LINE
  5
3DC
330
2
100
AcDbEntity
  8
OUTLINE
  6
CONTINUOUS
 48
25.4
100
AcDbLine
 10
206.0055725419981
 20
455.555948449528
 30
0.0
 11
206.0055725419981
 21
455.4015681305282
 31
0.0
  0
LINE
  5
3DD
330
2
100
AcDbEntity
  8
OUTLINE
  6
CONTINUOUS
 48
25.4
100
AcDbLine
 10
206.1498809819981
 20
455.5607808570279
 30
0.0
 11
206.1498809819981
 21
455.4073938290279
 31
0.0
  0
LINE
  5
3DE
330
2
100
AcDbEntity
  8
OUTLINE
  6
CONTINUOUS
 48
25.4
100
AcDbLine
 10
206.2941892309983
 20
455.574371973028
 30
0.0
 11
206.2941892309983
 21
455.421859190528
 31
0.0
  0
LINE
  5
3DF
330
2
100
AcDbEntity
  8
OUTLINE
  6
CONTINUOUS
 48
25.4
100
AcDbLine
 10
206.4384970969983
 20
455.595335649028
 30
0.0
 11
206.4384970969983
 21
455.4435737405277
 31
0.0
  0
LINE
  5
3E0
330
2
100
AcDbEntity
  8
OUTLINE
  6
CONTINUOUS
 48
25.4
100
AcDbLine
 10
206.5828043894981
 20
455.6222842745278
 30
0.0
 11
206.5828043894981
 21
455.4711457580281
 31
0.0
  0
LINE
  5
3E1
330
2
100
AcDbEntity
  8
OUTLINE
  6
CONTINUOUS
 48
25.4
100
AcDbLine
 10
206.7271109169983
 20
455.653830601028
 30
0.0
 11
206.7271109169983
 21
455.5032048690278
 31
0.0
  0
LINE
  5
3E2
330
2
100
AcDbEntity
  8
OUTLINE
  6
CONTINUOUS
 48
25.4
100
AcDbLine
 10
206.9676195759983
 20
455.7128633175278
 30
0.0
 11
206.9676195759983
 21
455.562728880028
 31
0.0
  0
LINE
  5
3E3
330
2
100
AcDbEntity
  8
OUTLINE
  6
CONTINUOUS
 48
25.4
100
AcDbLine
 10
207.2081246929982
 20
455.774425574028
 30
0.0
 11
207.2081246929982
 21
455.6243733330282
 31
0.0
  0
LINE
  5
3E4
330
2
100
AcDbEntity
  8
OUTLINE
  6
CONTINUOUS
 48
25.4
100
AcDbLine
 10
207.4486253819983
 20
455.8321520600281
 30
0.0
 11
207.4486253819983
 21
455.6818636325282
 31
0.0
  0
LINE
  5
3E5
330
2
100
AcDbEntity
  8
OUTLINE
  6
CONTINUOUS
 48
25.4
100
AcDbLine
 10
207.5929233014983
 20
455.8623099330278
 30
0.0
 11
207.5929233014983
 21
455.7116470690277
 31
0.0
  0
LINE
  5
3E6
330
2
100
AcDbEntity
  8
OUTLINE
  6
CONTINUOUS
 48
25.4
100
AcDbLine
 10
207.7372191169983
 20
455.8874410520282
 30
0.0
 11
207.7372191169983
 21
455.7362462800281
 31
0.0
  0
LINE
  5
3E7
330
2
100
AcDbEntity
  8
OUTLINE
  6
CONTINUOUS
 48
25.4
100
AcDbLine
 10
207.8815126369983
 20
455.9061827275278
 30
0.0
 11
207.8815126369983
 21
455.754294566528
 31
0.0
  0
LINE
  5
3E8
330
2
100
AcDbEntity
  8
OUTLINE
  6
CONTINUOUS
 48
25.4
100
AcDbLine
 10
208.0258036704983
 20
455.917172571028
 30
0.0
 11
208.0258036704983
 21
455.7644253310279
 31
0.0
  0
LINE
  5
3E9
330
2
100
AcDbEntity
  8
OUTLINE
  6
CONTINUOUS
 48
25.4
100
AcDbLine
 10
208.1700920259982
 20
455.9190466660282
 30
0.0
 11
208.1700920259982
 21
455.7653117270281
 31
0.0
  0
LINE
  5
3EA
330
2
100
AcDbEntity
  8
OUTLINE
  6
CONTINUOUS
 48
25.4
100
AcDbLine
 10
208.3143777034983
 20
455.9108935620279
 30
0.0
 11
208.3143777034983
 21
455.7562590300277
 31
0.0
  0
LINE
  5
3EB
330
2
100
AcDbEntity
  8
OUTLINE
  6
CONTINUOUS
 48
25.4
100
AcDbLine
 10
208.4586614679983
 20
455.8936213990278
 30
0.0
 11
208.4586614679983
 21
455.738194576028
 31
0.0
  0
LINE
  5
3EC
330
2
100
AcDbEntity
  8
OUTLINE
  6
CONTINUOUS
 48
25.4
100
AcDbLine
 10
208.6029442764983
 20
455.868590833528
 30
0.0
 11
208.6029442764983
 21
455.7124831110279
 31
0.0
  0
LINE
  5
3ED
330
2
100
AcDbEntity
  8
OUTLINE
  6
CONTINUOUS
 48
25.4
100
AcDbLine
 10
208.7472270844983
 20
455.8371610470279
 30
0.0
 11
208.7472270844983
 21
455.680488078028
 31
0.0
  0
LINE
  5
3EE
330
2
100
AcDbEntity
  8
OUTLINE
  6
CONTINUOUS
 48
25.4
100
AcDbLine
 10
208.8915108494981
 20
455.8006915730278
 30
0.0
 11
208.8915108494981
 21
455.6434919380278
 31
0.0
  0
LINE
  5
3EF
330
2
100
AcDbEntity
  8
OUTLINE
  6
CONTINUOUS
 48
25.4
100
AcDbLine
 10
209.1319885134983
 20
455.7324086025279
 30
0.0
 11
209.1319885134983
 21
455.5748214955281
 31
0.0
  0
LINE
  5
3F0
330
2
100
AcDbEntity
  8
OUTLINE
  6
CONTINUOUS
 48
25.4
100
AcDbLine
 10
209.3724759189983
 20
455.6602313140277
 30
0.0
 11
209.3724759189983
 21
455.5026244085279
 31
0.0
  0
LINE
  5
3F1
330
2
100
AcDbEntity
  8
OUTLINE
  6
CONTINUOUS
 48
25.4
100
AcDbLine
 10
209.6129774934981
 20
455.5905115080281
 30
0.0
 11
209.6129774934981
 21
455.4331279420281
 31
0.0
  0
LINE
  5
3F2
330
2
100
AcDbEntity
  8
OUTLINE
  6
CONTINUOUS
 48
25.4
100
AcDbLine
 10
209.7572870814983
 20
455.552512951028
 30
0.0
 11
209.7572870814983
 21
455.395500607528
 31
0.0
  0
LINE
  5
3F3
330
2
100
AcDbEntity
  8
OUTLINE
  6
CONTINUOUS
 48
25.4
100
AcDbLine
 10
209.9016043204982
 20
455.5190788430281
 30
0.0
 11
209.9016043204982
 21
455.3625896705281
 31
0.0
  0
LINE
  5
3F4
330
2
100
AcDbEntity
  8
OUTLINE
  6
CONTINUOUS
 48
25.4
100
AcDbLine
 10
210.0459301674983
 20
455.4915938815279
 30
0.0
 11
210.0459301674983
 21
455.3357841085278
 31
0.0
  0
LINE
  5
3F5
330
2
100
AcDbEntity
  8
OUTLINE
  6
CONTINUOUS
 48
25.4
100
AcDbLine
 10
210.1902655784983
 20
455.4714432465281
 30
0.0
 11
210.1902655784983
 21
455.3164731990278
 31
0.0
  0
LINE
  5
3F6
330
2
100
AcDbEntity
  8
OUTLINE
  6
CONTINUOUS
 48
25.4
100
AcDbLine
 10
210.3346115099983
 20
455.4600107815278
 30
0.0
 11
210.3346115099983
 21
455.305733821528
 31
0.0
  0
LINE
  5
3F7
330
2
100
AcDbEntity
  8
OUTLINE
  6
CONTINUOUS
 48
25.4
100
AcDbLine
 10
210.4067054854982
 20
455.4579392705282
 30
0.0
 11
210.4067054854982
 21
455.3041965870279
 31
0.0
  0
LINE
  5
3F8
330
2
100
AcDbEntity
  8
OUTLINE
  6
CONTINUOUS
 48
25.4
100
AcDbLine
 10
210.4788018704982
 20
455.4582164210279
 30
0.0
 11
210.4788018704982
 21
455.3049363250281
 31
0.0
  0
LINE
  5
3F9
330
2
100
AcDbEntity
  8
OUTLINE
  6
CONTINUOUS
 48
25.4
100
AcDbLine
 10
210.5509002129982
 20
455.460671685028
 30
0.0
 11
210.5509002129982
 21
455.3451889725281
 31
0.0
  0
LINE
  5
3FA
330
2
100
AcDbEntity
  8
OUTLINE
  6
CONTINUOUS
 48
25.4
100
AcDbLine
 10
210.6049749819983
 20
455.4638397930282
 30
0.0
 11
210.6049749819983
 21
455.4016562350281
 31
0.0
  0
LINE
  5
3FB
330
2
100
AcDbEntity
  8
OUTLINE
  6
CONTINUOUS
 48
25.4
100
AcDbLine
 10
201.4962942584983
 20
455.3070357615278
 30
0.0
 11
201.5172272409983
 21
455.3058202190278
 31
0.0
  0
LINE
  5
3FC
330
2
100
AcDbEntity
  8
OUTLINE
  6
CONTINUOUS
 48
25.4
100
AcDbLine
 10
209.1202952119981
 20
456.1819760305281
 30
0.0
 11
209.1202952119981
 21
457.5316799425278
 31
0.0
  0
LINE
  5
3FD
330
2
100
AcDbEntity
  8
OUTLINE
  6
CONTINUOUS
 48
25.4
100
AcDbLine
 10
208.6649607469983
 20
456.1954035095279
 30
0.0
 11
209.1202952119981
 21
456.1819760305281
 31
0.0
  0
LINE
  5
3FE
330
2
100
AcDbEntity
  8
OUTLINE
  6
CONTINUOUS
 48
25.4
100
AcDbLine
 10
208.6649607469983
 20
456.7732609790278
 30
0.0
 11
208.6649607469983
 21
456.1954035095279
 31
0.0
  0
LINE
  5
3FF
330
2
100
AcDbEntity
  8
OUTLINE
  6
CONTINUOUS
 48
25.4
100
AcDbLine
 10
207.8579762839983
 20
456.7918370620279
 30
0.0
 11
208.6649607469983
 21
456.7732609790278
 31
0.0
  0
LINE
  5
400
330
2
100
AcDbEntity
  8
OUTLINE
  6
CONTINUOUS
 48
25.4
100
AcDbLine
 10
207.8579762839983
 20
456.2140026650278
 30
0.0
 11
207.8579762839983
 21
456.7918370620279
 31
0.0
  0
LINE
  5
401
330
2
100
AcDbEntity
  8
OUTLINE
  6
CONTINUOUS
 48
25.4
100
AcDbLine
 10
207.4054949629982
 20
456.2215254525278
 30
0.0
 11
207.8579762839983
 21
456.2140026650278
 31
0.0
  0
LINE
  5
402
330
2
100
AcDbEntity
  8
OUTLINE
  6
CONTINUOUS
 48
25.4
100
AcDbLine
 10
207.4054949629982
 20
457.5711235780278
 30
0.0
 11
207.4054949629982
 21
456.2215254525278
 31
0.0
  0
LINE
  5
403
330
2
100
AcDbEntity
  8
OUTLINE
  6
CONTINUOUS
 48
25.4
100
AcDbLine
 10
207.8579762839983
 20
457.5636208960278
 30
0.0
 11
207.4054949629982
 21
457.5711235780278
 31
0.0
  0
LINE
  5
404
330
2
100
AcDbEntity
  8
OUTLINE
  6
CONTINUOUS
 48
25.4
100
AcDbLine
 10
207.8579762839983
 20
457.070118300028
 30
0.0
 11
207.8579762839983
 21
457.5636208960278
 31
0.0
  0
LINE
  5
405
330
2
100
AcDbEntity
  8
OUTLINE
  6
CONTINUOUS
 48
25.4
100
AcDbLine
 10
208.6649607469983
 20
457.051552388028
 30
0.0
 11
207.8579762839983
 21
457.070118300028
 31
0.0
  0
LINE
  5
406
330
2
100
AcDbEntity
  8
OUTLINE
  6
CONTINUOUS
 48
25.4
100
AcDbLine
 10
208.6649607469983
 20
457.5450714815278
 30
0.0
 11
208.6649607469983
 21
457.051552388028
 31
0.0
  0
LINE
  5
407
330
2
100
AcDbEntity
  8
OUTLINE
  6
CONTINUOUS
 48
25.4
100
AcDbLine
 10
209.1202952119981
 20
457.5316799425278
 30
0.0
 11
208.6649607469983
 21
457.5450714815278
 31
0.0
  0
LINE
  5
408
330
2
100
AcDbEntity
  8
OUTLINE
  6
CONTINUOUS
 48
25.4
100
AcDbLine
 10
209.1202952119981
 20
457.1455679120279
 30
0.0
 11
208.6649607469983
 21
457.1455679120279
 31
0.0
  0
LINE
  5
409
330
2
100
AcDbEntity
  8
OUTLINE
  6
CONTINUOUS
 48
25.4
100
AcDbLine
 10
208.6649607469983
 20
457.051552388028
 30
0.0
 11
208.6649607469983
 21
456.6890876290279
 31
0.0
  0
LINE
  5
40A
330
2
100
AcDbEntity
  8
OUTLINE
  6
CONTINUOUS
 48
25.4
100
AcDbLine
 10
207.8579762839983
 20
457.070118300028
 30
0.0
 11
207.8579762839983
 21
456.6890876290279
 31
0.0
  0
LINE
  5
40B
330
2
100
AcDbEntity
  8
OUTLINE
  6
CONTINUOUS
 48
25.4
100
AcDbLine
 10
207.8579762839983
 20
457.1455679120279
 30
0.0
 11
207.4054949629982
 21
457.1455679120279
 31
0.0
  0
LINE
  5
40C
330
2
100
AcDbEntity
  8
OUTLINE
  6
CONTINUOUS
 48
25.4
100
AcDbLine
 10
210.9268665344983
 20
456.368714764028
 30
0.0
 11
210.9268665344983
 21
456.107809927528
 31
0.0
  0
LINE
  5
40D
330
2
100
AcDbEntity
  8
OUTLINE
  6
CONTINUOUS
 48
25.4
100
AcDbLine
 10
210.0673569044983
 20
456.4081437345279
 30
0.0
 11
210.9268665344983
 21
456.368714764028
 31
0.0
  0
LINE
  5
40E
330
2
100
AcDbEntity
  8
OUTLINE
  6
CONTINUOUS
 48
25.4
100
AcDbLine
 10
210.0673569044983
 20
456.7415937965281
 30
0.0
 11
210.0673569044983
 21
456.4081437345279
 31
0.0
  0
LINE
  5
40F
330
2
100
AcDbEntity
  8
OUTLINE
  6
CONTINUOUS
 48
25.4
100
AcDbLine
 10
210.6904956949983
 20
456.7137818635281
 30
0.0
 11
210.0673569044983
 21
456.7415937965281
 31
0.0
  0
LINE
  5
410
330
2
100
AcDbEntity
  8
OUTLINE
  6
CONTINUOUS
 48
25.4
100
AcDbLine
 10
210.6904956949983
 20
456.9634526970279
 30
0.0
 11
210.6904956949983
 21
456.7137818635281
 31
0.0
  0
LINE
  5
411
330
2
100
AcDbEntity
  8
OUTLINE
  6
CONTINUOUS
 48
25.4
100
AcDbLine
 10
210.0673569044983
 20
456.991250926528
 30
0.0
 11
210.6904956949983
 21
456.9634526970279
 31
0.0
  0
LINE
  5
412
330
2
100
AcDbEntity
  8
OUTLINE
  6
CONTINUOUS
 48
25.4
100
AcDbLine
 10
210.0673569044983
 20
457.241831620528
 30
0.0
 11
210.0673569044983
 21
456.991250926528
 31
0.0
  0
LINE
  5
413
330
2
100
AcDbEntity
  8
OUTLINE
  6
CONTINUOUS
 48
25.4
100
AcDbLine
 10
210.8100090409982
 20
457.208263635528
 30
0.0
 11
210.0673569044983
 21
457.241831620528
 31
0.0
  0
LINE
  5
414
330
2
100
AcDbEntity
  8
OUTLINE
  6
CONTINUOUS
 48
25.4
100
AcDbLine
 10
210.8100090409982
 20
457.463505763028
 30
0.0
 11
210.8100090409982
 21
457.208263635528
 31
0.0
  0
LINE
  5
415
330
2
100
AcDbEntity
  8
OUTLINE
  6
CONTINUOUS
 48
25.4
100
AcDbLine
 10
209.6148755834982
 20
457.5147408900281
 30
0.0
 11
210.8100090409982
 21
457.463505763028
 31
0.0
  0
LINE
  5
416
330
2
100
AcDbEntity
  8
OUTLINE
  6
CONTINUOUS
 48
25.4
100
AcDbLine
 10
209.6148755834982
 20
456.1649914825278
 30
0.0
 11
209.6148755834982
 21
457.5147408900281
 31
0.0
  0
LINE
  5
417
330
2
100
AcDbEntity
  8
OUTLINE
  6
CONTINUOUS
 48
25.4
100
AcDbLine
 10
210.9268665344983
 20
456.107809927528
 30
0.0
 11
209.6148755834982
 21
456.1649914825278
 31
0.0
  0
LINE
  5
418
330
2
100
AcDbEntity
  8
OUTLINE
  6
CONTINUOUS
 48
25.4
100
AcDbLine
 10
210.0673569044983
 20
456.991250926528
 30
0.0
 11
210.0673569044983
 21
456.6778198025281
 31
0.0
  0
LINE
  5
419
330
2
100
AcDbEntity
  8
OUTLINE
  6
CONTINUOUS
 48
25.4
100
AcDbLine
 10
210.0673569044983
 20
456.4081437345279
 30
0.0
 11
210.0673569044983
 21
456.1444760245279
 31
0.0
  0
LINE
  5
41A
330
2
100
AcDbEntity
  8
OUTLINE
  6
CONTINUOUS
 48
25.4
100
AcDbLine
 10
209.6148755834982
 20
457.1455679120279
 30
0.0
 11
210.0673569044983
 21
457.1455679120279
 31
0.0
  0
LINE
  5
41B
330
2
100
AcDbEntity
  8
OUTLINE
  6
CONTINUOUS
 48
25.4
100
AcDbLine
 10
210.0855884734982
 20
456.1444760245279
 30
0.0
 11
210.9268665344983
 21
456.1444760245279
 31
0.0
  0
LINE
  5
41C
330
2
100
AcDbEntity
  8
OUTLINE
  6
CONTINUOUS
 48
25.4
100
AcDbLine
 10
229.6904711439982
 20
437.9819171865281
 30
0.0
 11
228.7334168094983
 21
465.388367507528
 31
0.0
  0
SPLINE
  5
41D
330
2
100
AcDbEntity
  8
OUTLINE
  6
CONTINUOUS
 48
25.4
100
AcDbSpline
210
0.0
220
0.0
230
1.0
 70
     8
 71
     3
 72
    28
 73
    24
 74
     0
 42
0.0000000001
 43
0.0000000001
 40
0.2093698519247793
 40
0.2093698519247793
 40
0.2093698519247793
 40
0.2093698519247793
 40
0.2284135199854721
 40
0.2642116431640241
 40
0.3000637812517975
 40
0.3366330067198695
 40
0.3736977904762419
 40
0.4112431344681882
 40
0.4492366873577049
 40
0.4876299785993071
 40
0.5263580415217161
 40
0.5653394605979303
 40
0.6044769991071624
 40
0.6436550042496721
 40
0.6828529812479736
 40
0.7222630783724364
 40
0.7624199517181478
 40
0.8029759225411325
 40
0.8436575254997197
 40
0.8841359232320401
 40
0.9250511566784867
 40
0.9665039529502346
 40
1.0
 40
1.0
 40
1.0
 40
1.0
 10
195.0962767281683
 20
476.5232735782634
 30
0.0
 10
194.9292976368448
 20
476.4784724976805
 30
0.0
 10
194.452457815758
 20
476.346332288462
 30
0.0
 10
193.6840608272904
 20
476.1129055253275
 30
0.0
 10
192.7999049032134
 20
475.8120210834504
 30
0.0
 10
191.9401061391678
 20
475.4855949297108
 30
0.0
 10
191.1040330345858
 20
475.1322089953511
 30
0.0
 10
190.29628558336
 20
474.75258993455
 30
0.0
 10
189.519967308232
 20
474.3469755276671
 30
0.0
 10
188.7783709232472
 20
473.915803982909
 30
0.0
 10
188.0749216544209
 20
473.4597439155582
 30
0.0
 10
187.4131002509701
 20
472.979698955522
 30
0.0
 10
186.7964472790463
 20
472.4769419725229
 30
0.0
 10
186.2277343602336
 20
471.9523244557509
 30
0.0
 10
185.7089367345921
 20
471.406439479512
 30
0.0
 10
185.2364249552479
 20
470.8374105926426
 30
0.0
 10
184.8096796506379
 20
470.2436878304236
 30
0.0
 10
184.4307004567891
 20
469.6258806525499
 30
0.0
 10
184.1040923590711
 20
468.9888545410739
 30
0.0
 10
183.8306493897556
 20
468.3333283406151
 30
0.0
 10
183.6109110521029
 20
467.6637275161156
 30
0.0
 10
183.4470665844976
 20
467.0025712541915
 30
0.0
 10
183.3876772175159
 20
466.6054581004571
 30
0.0
 10
183.3572778314722
 20
466.3952531286286
 30
0.0
  0
SPLINE
  5
41E
330
2
100
AcDbEntity
  8
OUTLINE
  6
CONTINUOUS
 48
25.4
100
AcDbSpline
210
0.0
220
0.0
230
1.0
 70
     8
 71
     3
 72
    28
 73
    24
 74
     0
 42
0.0000000001
 43
0.0000000001
 40
0.0
 40
0.0
 40
0.0
 40
0.0
 40
0.013785801552394
 40
0.0457270175450363
 40
0.0773888197185437
 40
0.1087762502120006
 40
0.1399012076588654
 40
0.1707785933517976
 40
0.2014229168805934
 40
0.231846449042482
 40
0.2620591103013846
 40
0.2920573384969056
 40
0.3217512474226043
 40
0.3513597434668302
 40
0.3808259592217429
 40
0.4101052442626678
 40
0.439163681522394
 40
0.4679786403418727
 40
0.4965386759471055
 40
0.5248430216964968
 40
0.5529008549960776
 40
0.5807271101044563
 40
0.5952085157537508
 40
0.5952085157537508
 40
0.5952085157537508
 40
0.5952085157537508
 10
228.6358726766633
 20
466.4206541453029
 30
0.0
 10
228.6215394251286
 20
466.5357871300741
 30
0.0
 10
228.5801839962151
 20
466.8607594941707
 30
0.0
 10
228.4448681721759
 20
467.4512069585646
 30
0.0
 10
228.2376984328085
 20
468.1407072548307
 30
0.0
 10
227.9725330356691
 20
468.8154841448577
 30
0.0
 10
227.6553602509991
 20
469.4673863264064
 30
0.0
 10
227.2857784477796
 20
470.0976767916564
 30
0.0
 10
226.8651403786376
 20
470.705230284244
 30
0.0
 10
226.3943801765893
 20
471.2896338259297
 30
0.0
 10
225.8748188318339
 20
471.8502370670355
 30
0.0
 10
225.3080437531457
 20
472.3860620914126
 30
0.0
 10
224.6950497428129
 20
472.897508142489
 30
0.0
 10
224.0373250972258
 20
473.3849816667507
 30
0.0
 10
223.3355325680123
 20
473.8489093600001
 30
0.0
 10
222.592407283495
 20
474.2883794321531
 30
0.0
 10
221.8106700106369
 20
474.7027255155126
 30
0.0
 10
220.9929930739221
 20
475.0914993217398
 30
0.0
 10
220.1419357155816
 20
475.4544417023096
 30
0.0
 10
219.2599180868787
 20
475.791458055007
 30
0.0
 10
218.349169579953
 20
476.102559282888
 30
0.0
 10
217.5593729157636
 20
476.3430092049055
 30
0.0
 10
217.0719766461175
 20
476.4783852236265
 30
0.0
 10
216.903743989167
 20
476.523636154941
 30
0.0
  0
ARC
  5
41F
330
2
100
AcDbEntity
  8
OUTLINE
  6
CONTINUOUS
 48
25.4
100
AcDbCircle
 10
230.4822348429983
 20
400.9819171865281
 30
0.0
 40
0.5
100
AcDbArc
 50
270.0
 51
1.99999999999974
  0
ARC
  5
420
330
2
100
AcDbEntity
  8
OUTLINE
  6
CONTINUOUS
 48
25.4
100
AcDbCircle
 10
181.5177651564982
 20
400.9819171865281
 30
0.0
 40
0.5000000000000031
100
AcDbArc
 50
178.0000000000002
 51
270.0
  0
SPLINE
  5
421
330
2
100
AcDbEntity
  8
OUTLINE
  6
CONTINUOUS
 48
25.4
100
AcDbSpline
210
0.0
220
0.0
230
1.0
 70
     8
 71
     3
 72
    28
 73
    24
 74
     0
 42
0.0000000001
 43
0.0000000001
 40
0.0
 40
0.0
 40
0.0
 40
0.0
 40
0.0219703777121807
 40
0.0807159959102119
 40
0.137464263194155
 40
0.1919154083415637
 40
0.2447596661656214
 40
0.2966013943602462
 40
0.3477898242490384
 40
0.3984925855239012
 40
0.4487705784757798
 40
0.498829141988075
 40
0.5480226788800567
 40
0.5973904380266029
 40
0.646723380254039
 40
0.6958316283746442
 40
0.7445782235125284
 40
0.7928603342558716
 40
0.8406148758649598
 40
0.8878211663436403
 40
0.9345010183205438
 40
0.9807168254659723
 40
1.0
 40
1.0
 40
1.0
 40
1.0
 10
217.191634233451
 20
472.5712827794788
 30
0.0
 10
217.1936842316891
 20
472.5316348889172
 30
0.0
 10
217.1993056852455
 20
472.4071954778755
 30
0.0
 10
217.1532110349394
 20
472.1661730678174
 30
0.0
 10
217.0504637301482
 20
471.86627715847
 30
0.0
 10
216.8903384238491
 20
471.5621838647455
 30
0.0
 10
216.6790171615088
 20
471.2595698063376
 30
0.0
 10
216.4162967150927
 20
470.9582087259825
 30
0.0
 10
216.1030143037879
 20
470.6595810442859
 30
0.0
 10
215.7400293323951
 20
470.3655182006321
 30
0.0
 10
215.32861790753
 20
470.0776862148805
 30
0.0
 10
214.8716618333704
 20
469.7999948259936
 30
0.0
 10
214.370061955232
 20
469.5331518434819
 30
0.0
 10
213.8268539201205
 20
469.2789821061713
 30
0.0
 10
213.2421734633463
 20
469.0383736462957
 30
0.0
 10
212.6208258795008
 20
468.8140995733179
 30
0.0
 10
211.9677477164989
 20
468.6084977327539
 30
0.0
 10
211.2875393738601
 20
468.4234501246747
 30
0.0
 10
210.5854483556266
 20
468.2605659032389
 30
0.0
 10
209.8633390990928
 20
468.120701874913
 30
0.0
 10
209.1338725130404
 20
468.0058692057428
 30
0.0
 10
208.5146383778574
 20
467.9303390609304
 30
0.0
 10
208.180167085212
 20
467.8986582131454
 30
0.0
 10
208.0644700442525
 20
467.887857146351
 30
0.0
  0
SPLINE
  5
422
330
2
100
AcDbEntity
  8
OUTLINE
  6
CONTINUOUS
 48
25.4
100
AcDbSpline
210
0.0
220
0.0
230
1.0
 70
     8
 71
     3
 72
    34
 73
    30
 74
     0
 42
0.0000000001
 43
0.0000000001
 40
0.0
 40
0.0
 40
0.0
 40
0.0
 40
0.0185489075104323
 40
0.0538522769672008
 40
0.0894082136875997
 40
0.1253868857823016
 40
0.1617978794971954
 40
0.1986240509179865
 40
0.2358208878078354
 40
0.2733184254510971
 40
0.3110248236745162
 40
0.3488316361893378
 40
0.3865915903230938
 40
0.4241729522079896
 40
0.46149065957805
 40
0.4989950114267261
 40
0.537777748968605
 40
0.5769744901837001
 40
0.6165766516345622
 40
0.6565463512229229
 40
0.696826797915123
 40
0.7373503963579107
 40
0.7780528211528092
 40
0.8188957980597677
 40
0.8599022157513399
 40
0.9012080134926652
 40
0.9430882375629904
 40
0.9865431672219495
 40
1.0
 40
1.0
 40
1.0
 40
1.0
 10
208.0644700442525
 20
467.887857146351
 30
0.0
 10
207.9251540560786
 20
467.8760067831198
 30
0.0
 10
207.5812742674989
 20
467.847316997289
 30
0.0
 10
206.9476855936111
 20
467.8130767174175
 30
0.0
 10
206.2094424137319
 20
467.797383928903
 30
0.0
 10
205.4563252816026
 20
467.8054956017247
 30
0.0
 10
204.699501626343
 20
467.8378809757586
 30
0.0
 10
203.9412511204869
 20
467.8944617707274
 30
0.0
 10
203.1872240210037
 20
467.9750682289657
 30
0.0
 10
202.4427705121782
 20
468.0792473767175
 30
0.0
 10
201.7138078793978
 20
468.2062685160001
 30
0.0
 10
201.0065570414772
 20
468.355035889492
 30
0.0
 10
200.3273512939514
 20
468.5241381821406
 30
0.0
 10
199.6818990951656
 20
468.7117101079307
 30
0.0
 10
199.0730970359201
 20
468.9172767963884
 30
0.0
 10
198.4928605505959
 20
469.1403524775174
 30
0.0
 10
197.9418901222114
 20
469.3807611811455
 30
0.0
 10
197.4230708238266
 20
469.6378511462509
 30
0.0
 10
196.9436869786349
 20
469.9079609401397
 30
0.0
 10
196.5068689192133
 20
470.188919542604
 30
0.0
 10
196.11568444846
 20
470.4781389031708
 30
0.0
 10
195.7728997404919
 20
470.7726544542618
 30
0.0
 10
195.4807787139938
 20
471.06916944148
 30
0.0
 10
195.2407408627564
 20
471.3642741971157
 30
0.0
 10
195.053460718585
 20
471.6545446493531
 30
0.0
 10
194.9175462703618
 20
471.9378809102706
 30
0.0
 10
194.8338546118401
 20
472.2130173659065
 30
0.0
 10
194.7971935663368
 20
472.4267701969613
 30
0.0
 10
194.8036684936258
 20
472.5358669013026
 30
0.0
 10
194.8056047915328
 20
472.5660201743021
 30
0.0
  0
SPLINE
  5
423
330
2
100
AcDbEntity
  8
OUTLINE
  6
CONTINUOUS
 48
25.4
100
AcDbSpline
210
0.0
220
0.0
230
1.0
 70
     8
 71
     3
 72
    11
 73
     7
 74
     0
 42
0.0000000001
 43
0.0000000001
 40
0.0
 40
0.0
 40
0.0
 40
0.0
 40
0.0837910991287503
 40
0.2974809049427222
 40
0.4676951523952848
 40
0.4846872715778586
 40
0.4846872715778586
 40
0.4846872715778586
 40
0.4846872715778586
 10
229.3578879832935
 20
438.5957182326426
 30
0.0
 10
229.3602729427059
 20
438.6148122953245
 30
0.0
 10
229.3673896215256
 20
438.671879988774
 30
0.0
 10
229.3789750098861
 20
438.7299959684746
 30
0.0
 10
229.3853098264813
 20
438.7540249424585
 30
0.0
 10
229.3856719203594
 20
438.7551117480207
 30
0.0
 10
229.3856777037383
 20
438.75512106108
 30
0.0
  0
SPLINE
  5
424
330
2
100
AcDbEntity
  8
OUTLINE
  6
CONTINUOUS
 48
25.4
100
AcDbSpline
210
0.0
220
0.0
230
1.0
 70
     8
 71
     3
 72
    11
 73
     7
 74
     0
 42
0.0000000001
 43
0.0000000001
 40
0.5014106272823913
 40
0.5014106272823913
 40
0.5014106272823913
 40
0.5014106272823913
 40
0.6063988386791797
 40
0.7810814282328844
 40
0.9939657947180966
 40
1.0
 40
1.0
 40
1.0
 40
1.0
 10
230.4533084360758
 20
408.2379413580545
 30
0.0
 10
230.4533344994331
 20
408.2378724359896
 30
0.0
 10
230.4499104718049
 20
408.2465781693787
 30
0.0
 10
230.436249521561
 20
408.2947740407441
 30
0.0
 10
230.4218685740494
 20
408.3513254947034
 30
0.0
 10
230.4132933312924
 20
408.397494470541
 30
0.0
 10
230.413019121334
 20
408.3989707715221
 30
0.0
  0
LINE
  5
425
330
2
100
AcDbEntity
  8
OUTLINE
  6
CONTINUOUS
 48
25.4
100
AcDbLine
 10
206.5899365304983
 20
456.5275708230281
 30
0.0
 11
206.5899365304983
 21
456.9101250200279
 31
0.0
  0
LINE
  5
426
330
2
100
AcDbEntity
  8
OUTLINE
  6
CONTINUOUS
 48
25.4
100
AcDbLine
 10
205.4042184834983
 20
456.909660878028
 30
0.0
 11
205.4042184834983
 21
456.5272404475281
 31
0.0
  0
LINE
  5
427
330
2
100
AcDbEntity
  8
OUTLINE
  6
CONTINUOUS
 48
25.4
100
AcDbLine
 10
230.9819302564982
 20
400.9993669350279
 30
0.0
 11
230.7031734589982
 21
408.9819171865281
 31
0.0
  0
LINE
  5
428
330
2
100
AcDbEntity
  8
OUTLINE
  6
CONTINUOUS
 48
25.4
100
AcDbLine
 10
183.2666579334983
 20
465.390507877528
 30
0.0
 11
181.0180697429981
 21
400.9993669350279
 31
0.0
  0
LINE
  5
429
330
2
100
AcDbEntity
  8
OUTLINE
  6
CONTINUOUS
 48
25.4
100
AcDbLine
 10
209.1460112149981
 20
593.2043268760279
 30
0.0
 11
210.2754217079982
 21
593.220743777528
 31
0.0
  0
LINE
  5
42A
330
2
100
AcDbEntity
  8
OUTLINE
  6
CONTINUOUS
 48
25.4
100
AcDbLine
 10
209.1546048004983
 20
593.0987347495279
 30
0.0
 11
209.1460112149981
 21
593.2043268760279
 31
0.0
  0
LINE
  5
42B
330
2
100
AcDbEntity
  8
OUTLINE
  6
CONTINUOUS
 48
25.4
100
AcDbLine
 10
207.6554912589982
 20
593.0769439130279
 30
0.0
 11
209.1546048004983
 21
593.0987347495279
 31
0.0
  0
ELLIPSE
  5
42C
330
2
100
AcDbEntity
  8
OUTLINE
  6
CONTINUOUS
 48
25.4
100
AcDbEllipse
 10
207.6383040884983
 20
593.2881281660279
 30
0.0
 11
0.500000000000005
 21
0.0
 31
0.0
210
0.0
220
0.0
230
1.0
 40
0.4226182617
 41
2.471633206703193
 42
4.746770094613381
  0
LINE
  5
42D
330
2
100
AcDbEntity
  8
OUTLINE
  6
CONTINUOUS
 48
25.4
100
AcDbLine
 10
208.2092511809983
 20
593.9330157085279
 30
0.0
 11
207.2463806644983
 21
593.4193414585279
 31
0.0
  0
LINE
  5
42E
330
2
100
AcDbEntity
  8
OUTLINE
  6
CONTINUOUS
 48
25.4
100
AcDbLine
 10
206.6391542534982
 20
593.5675039540277
 30
0.0
 11
207.1251038824982
 21
594.085838294528
 31
0.0
  0
ELLIPSE
  5
42F
330
2
100
AcDbEntity
  8
OUTLINE
  6
CONTINUOUS
 48
25.4
100
AcDbEllipse
 10
206.1743114854982
 20
593.645340556528
 30
0.0
 11
-0.5000000000000036
 21
-0.0000000000000278
 31
0.0
210
0.0
220
0.0
230
1.0
 40
0.4226182617
 41
0.2027051791095693
 42
2.764354549287002
  0
LINE
  5
430
330
2
100
AcDbEntity
  8
OUTLINE
  6
CONTINUOUS
 48
25.4
100
AcDbLine
 10
205.4311034314983
 20
594.1239484855278
 30
0.0
 11
205.6845487069983
 21
593.6027998325278
 31
0.0
  0
LINE
  5
431
330
2
100
AcDbEntity
  8
OUTLINE
  6
CONTINUOUS
 48
25.4
100
AcDbLine
 10
205.0256694464981
 20
593.5014507165281
 30
0.0
 11
204.3546704464982
 21
594.0262241050278
 31
0.0
  0
ELLIPSE
  5
432
330
2
100
AcDbEntity
  8
OUTLINE
  6
CONTINUOUS
 48
25.4
100
AcDbEllipse
 10
204.5857864374981
 20
593.4009928905278
 30
0.0
 11
-0.5000000000004869
 21
0.0
 31
0.0
210
0.0
220
0.0
230
1.0
 40
0.4226182617000001
 41
1.075369805107303
 42
3.637019175283023
  0
LINE
  5
433
330
2
100
AcDbEntity
  8
OUTLINE
  6
CONTINUOUS
 48
25.4
100
AcDbLine
 10
202.5983690694983
 20
593.6146793950277
 30
0.0
 11
204.3480829704983
 21
593.2150902980281
 31
0.0
  0
LINE
  5
434
330
2
100
AcDbEntity
  8
OUTLINE
  6
CONTINUOUS
 48
25.4
100
AcDbLine
 10
204.1082705314983
 20
592.936635890028
 30
0.0
 11
201.6123342249981
 21
593.153432555528
 31
0.0
  0
ELLIPSE
  5
435
330
2
100
AcDbEntity
  8
OUTLINE
  6
CONTINUOUS
 48
25.4
100
AcDbEllipse
 10
204.0076106034983
 20
592.729653196028
 30
0.0
 11
-0.5000000000000055
 21
-0.0000000000000278
 31
0.0
210
0.0
220
0.0
230
1.0
 40
0.4226182617
 41
1.948034431103964
 42
4.509683801280058
  0
LINE
  5
436
330
2
100
AcDbEntity
  8
OUTLINE
  6
CONTINUOUS
 48
25.4
100
AcDbLine
 10
201.6967162349983
 20
592.1154095185281
 30
0.0
 11
204.1917876949983
 21
592.533202153528
 31
0.0
  0
ELLIPSE
  5
437
330
2
100
AcDbEntity
  8
OUTLINE
  6
CONTINUOUS
 48
25.4
100
AcDbEllipse
 10
201.9729818719981
 20
591.820732954528
 30
0.0
 11
0.7500000000000049
 21
-0.0000000000000278
 31
0.0
210
0.0
220
0.0
230
1.0
 40
0.4226182617
 41
4.820556841990387
 42
5.382348427276759
  0
ELLIPSE
  5
438
330
2
100
AcDbEntity
  8
OUTLINE
  6
CONTINUOUS
 48
25.4
100
AcDbEllipse
 10
201.9729818719981
 20
591.820732954528
 30
0.0
 11
0.7500000000000049
 21
-0.0000000000000278
 31
0.0
210
0.0
220
0.0
230
1.0
 40
0.4226182617
 41
1.948034431103979
 42
2.50982601638523
  0
LINE
  5
439
330
2
100
AcDbEntity
  8
OUTLINE
  6
CONTINUOUS
 48
25.4
100
AcDbLine
 10
204.5423700269983
 20
592.2765771830277
 30
0.0
 11
202.4386975224983
 21
591.5722819600282
 31
0.0
  0
ELLIPSE
  5
43A
330
2
100
AcDbEntity
  8
OUTLINE
  6
CONTINUOUS
 48
25.4
100
AcDbEllipse
 10
204.8528471269983
 20
592.1109431870279
 30
0.0
 11
-0.4999999999999968
 21
0.0000000000000278
 31
0.0
210
0.0
220
0.0
230
1.0
 40
0.4226182617000001
 41
2.820699057100353
 42
5.382348427276807
  0
LINE
  5
43B
330
2
100
AcDbEntity
  8
OUTLINE
  6
CONTINUOUS
 48
25.4
100
AcDbLine
 10
204.4808205159983
 20
590.967975918028
 30
0.0
 11
205.3273240989982
 21
592.0442931875282
 31
0.0
  0
ELLIPSE
  5
43C
330
2
100
AcDbEntity
  8
OUTLINE
  6
CONTINUOUS
 48
25.4
100
AcDbEllipse
 10
205.1925359734982
 20
590.8680009185278
 30
0.0
 11
0.75
 21
-0.0000000000000555
 31
0.0
210
0.0
220
0.0
230
1.0
 40
0.4226182617
 41
5.693221467961655
 42
6.255013053274883
  0
ELLIPSE
  5
43D
330
2
100
AcDbEntity
  8
OUTLINE
  6
CONTINUOUS
 48
25.4
100
AcDbEllipse
 10
205.1925359734982
 20
590.8680009185278
 30
0.0
 11
0.75
 21
-0.0000000000000555
 31
0.0
210
0.0
220
0.0
230
1.0
 40
0.4226182617
 41
2.820699057100118
 42
3.382490642411711
  0
LINE
  5
43E
330
2
100
AcDbEntity
  8
OUTLINE
  6
CONTINUOUS
 48
25.4
100
AcDbLine
 10
206.0178364959983
 20
591.992836892528
 30
0.0
 11
205.9422383649981
 21
590.8590725180281
 31
0.0
  0
ELLIPSE
  5
43F
330
2
100
AcDbEntity
  8
OUTLINE
  6
CONTINUOUS
 48
25.4
100
AcDbEllipse
 10
206.5176380899981
 20
591.9868846255281
 30
0.0
 11
0.4999999999999968
 21
-0.0000000000000278
 31
0.0
210
0.0
220
0.0
230
1.0
 40
0.4226182617
 41
0.5517710295059631
 42
3.113420399685301
  0
LINE
  5
440
330
2
100
AcDbEntity
  8
OUTLINE
  6
CONTINUOUS
 48
25.4
100
AcDbLine
 10
208.3502642664983
 20
591.131757905528
 30
0.0
 11
206.9434368354983
 21
592.0976520805282
 31
0.0
  0
ELLIPSE
  5
441
330
2
100
AcDbEntity
  8
OUTLINE
  6
CONTINUOUS
 48
25.4
100
AcDbEllipse
 10
208.9889623849983
 20
591.2979090880281
 30
0.0
 11
-0.7500000000000049
 21
0.0
 31
0.0
210
0.0
220
0.0
230
1.0
 40
0.4226182617
 41
3.424293440389185
 42
3.986085025679344
  0
ELLIPSE
  5
442
330
2
100
AcDbEntity
  8
OUTLINE
  6
CONTINUOUS
 48
25.4
100
AcDbEllipse
 10
208.9889623849983
 20
591.2979090880281
 30
0.0
 11
-0.7500000000000049
 21
0.0
 31
0.0
210
0.0
220
0.0
230
1.0
 40
0.4226182617
 41
0.5517710295058246
 42
1.113562614804008
  0
LINE
  5
443
330
2
100
AcDbEntity
  8
OUTLINE
  6
CONTINUOUS
 48
25.4
100
AcDbLine
 10
207.4805601299981
 20
592.2881261135279
 30
0.0
 11
209.4870455509983
 21
591.5348819520281
 31
0.0
  0
ELLIPSE
  5
444
330
2
100
AcDbEntity
  8
OUTLINE
  6
CONTINUOUS
 48
25.4
100
AcDbEllipse
 10
207.8126155739981
 20
592.4461080225283
 30
0.0
 11
0.4999999999999869
 21
0.0
 31
0.0
210
0.0
220
0.0
230
1.0
 40
0.4226182617
 41
1.424435655504044
 42
3.986085025679473
  0
LINE
  5
445
330
2
100
AcDbEntity
  8
OUTLINE
  6
CONTINUOUS
 48
25.4
100
AcDbLine
 10
210.5406209839983
 20
592.4897455710278
 30
0.0
 11
207.8855349179983
 21
592.655157917528
 31
0.0
  0
ELLIPSE
  5
446
330
2
100
AcDbEntity
  8
OUTLINE
  6
CONTINUOUS
 48
25.4
100
AcDbEllipse
 10
210.6499999999981
 20
592.8033204130279
 30
0.0
 11
0.7500000000000006
 21
0.0
 31
0.0
210
0.0
220
0.0
230
1.0
 40
0.4226182617
 41
4.566028309093818
 42
5.10134448752819
  0
LINE
  5
447
330
2
100
AcDbEntity
  8
OUTLINE
  6
CONTINUOUS
 48
25.4
100
AcDbLine
 10
209.1460112149981
 20
593.6995978430283
 30
0.0
 11
209.1460112149981
 21
593.2043268760279
 31
0.0
  0
LINE
  5
448
330
2
100
AcDbEntity
  8
OUTLINE
  6
CONTINUOUS
 48
25.4
100
AcDbLine
 10
207.6554912589982
 20
593.6375946650278
 30
0.0
 11
207.6554912589982
 21
593.0769439130279
 31
0.0
  0
LINE
  5
449
330
2
100
AcDbEntity
  8
OUTLINE
  6
CONTINUOUS
 48
25.4
100
AcDbLine
 10
206.6391542534982
 20
594.120542286028
 30
0.0
 11
206.6391542534982
 21
593.5675039540277
 31
0.0
  0
LINE
  5
44A
330
2
100
AcDbEntity
  8
OUTLINE
  6
CONTINUOUS
 48
25.4
100
AcDbLine
 10
205.6845487069983
 20
594.1329184840281
 30
0.0
 11
205.6845487069983
 21
593.6027998325278
 31
0.0
  0
LINE
  5
44B
330
2
100
AcDbEntity
  8
OUTLINE
  6
CONTINUOUS
 48
25.4
100
AcDbLine
 10
204.3480829704983
 20
594.0253129105281
 30
0.0
 11
204.3480829704983
 21
593.2150902980281
 31
0.0
  0
LINE
  5
44C
330
2
100
AcDbEntity
  8
OUTLINE
  6
CONTINUOUS
 48
25.4
100
AcDbLine
 10
204.1917876949983
 20
592.9261042385279
 30
0.0
 11
204.1917876949983
 21
592.533202153528
 31
0.0
  0
LINE
  5
44D
330
2
100
AcDbEntity
  8
OUTLINE
  6
CONTINUOUS
 48
25.4
100
AcDbLine
 10
201.6967162349983
 20
593.146103146528
 30
0.0
 11
201.6967162349983
 21
592.1154095185281
 31
0.0
  0
LINE
  5
44E
330
2
100
AcDbEntity
  8
OUTLINE
  6
CONTINUOUS
 48
25.4
100
AcDbLine
 10
205.3273240989982
 20
592.1775931865282
 30
0.0
 11
205.3273240989982
 21
592.0442931875282
 31
0.0
  0
LINE
  5
44F
330
2
100
AcDbEntity
  8
OUTLINE
  6
CONTINUOUS
 48
25.4
100
AcDbLine
 10
204.4808205159983
 20
592.255970826028
 30
0.0
 11
204.4808205159983
 21
590.967975918028
 31
0.0
  0
LINE
  5
450
330
2
100
AcDbEntity
  8
OUTLINE
  6
CONTINUOUS
 48
25.4
100
AcDbLine
 10
209.4870455509983
 20
592.5553835130279
 30
0.0
 11
209.4870455509983
 21
591.5348819520281
 31
0.0
  0
LINE
  5
451
330
2
100
AcDbEntity
  8
OUTLINE
  6
CONTINUOUS
 48
25.4
100
AcDbLine
 10
207.4805601299981
 20
592.6040899320279
 30
0.0
 11
207.4805601299981
 21
592.2881261135279
 31
0.0
  0
LINE
  5
452
330
2
100
AcDbEntity
  8
OUTLINE
  6
CONTINUOUS
 48
25.4
100
AcDbLine
 10
207.9219945894983
 20
592.975089920528
 30
0.0
 11
207.9219945894983
 21
592.7596828645282
 31
0.0
  0
LINE
  5
453
330
2
100
AcDbEntity
  8
OUTLINE
  6
CONTINUOUS
 48
25.4
100
AcDbLine
 10
210.5770806559982
 20
593.0194427370279
 30
0.0
 11
210.5770806559982
 21
592.5942705185279
 31
0.0
  0
LINE
  5
454
330
2
100
AcDbEntity
  8
OUTLINE
  6
CONTINUOUS
 48
25.4
100
AcDbLine
 10
207.0504189519982
 20
593.719347465028
 30
0.0
 11
207.0504189519982
 21
593.4849481045278
 31
0.0
  0
LINE
  5
455
330
2
100
AcDbEntity
  8
OUTLINE
  6
CONTINUOUS
 48
25.4
100
AcDbLine
 10
205.2456109514983
 20
593.9805592565278
 30
0.0
 11
205.2456109514983
 21
593.5516796295281
 31
0.0
  0
LINE
  5
456
330
2
100
AcDbEntity
  8
OUTLINE
  6
CONTINUOUS
 48
25.4
100
AcDbLine
 10
204.1586004959983
 20
593.1382692235279
 30
0.0
 11
204.1586004959983
 21
593.0401272370279
 31
0.0
  0
LINE
  5
457
330
2
100
AcDbEntity
  8
OUTLINE
  6
CONTINUOUS
 48
25.4
100
AcDbLine
 10
202.2834589724983
 20
592.100012437528
 30
0.0
 11
202.2834589724983
 21
591.655098958528
 31
0.0
  0
LINE
  5
458
330
2
100
AcDbEntity
  8
OUTLINE
  6
CONTINUOUS
 48
25.4
100
AcDbLine
 10
204.3871314769981
 20
592.4562665720278
 30
0.0
 11
204.3871314769981
 21
592.3593941815278
 31
0.0
  0
LINE
  5
459
330
2
100
AcDbEntity
  8
OUTLINE
  6
CONTINUOUS
 48
25.4
100
AcDbLine
 10
205.6923375679983
 20
593.402490871028
 30
0.0
 11
205.6923375679983
 21
590.8620486515281
 31
0.0
  0
LINE
  5
45A
330
2
100
AcDbEntity
  8
OUTLINE
  6
CONTINUOUS
 48
25.4
100
AcDbLine
 10
205.7679356989982
 20
593.3789372360279
 30
0.0
 11
205.7679356989982
 21
591.9958130265277
 31
0.0
  0
LINE
  5
45B
330
2
100
AcDbEntity
  8
OUTLINE
  6
CONTINUOUS
 48
25.4
100
AcDbLine
 10
207.1563362084983
 20
592.2926810655277
 30
0.0
 11
207.1563362084983
 21
592.1530358080281
 31
0.0
  0
LINE
  5
45C
330
2
100
AcDbEntity
  8
OUTLINE
  6
CONTINUOUS
 48
25.4
100
AcDbLine
 10
208.5631636394983
 20
591.740393061528
 30
0.0
 11
208.5631636394983
 21
591.187141633028
 31
0.0
  0
ELLIPSE
  5
45D
330
2
100
AcDbEntity
  8
OUTLINE
  6
CONTINUOUS
 48
25.4
100
AcDbEllipse
 10
208.9889623849983
 20
591.2979090880281
 30
0.0
 11
-0.4999999999999975
 21
0.0000000000000278
 31
0.0
210
0.0
220
0.0
230
1.0
 40
0.4226182617
 41
0.5517710295061004
 42
1.435822232418009
  0
ELLIPSE
  5
45E
330
2
100
AcDbEntity
  8
OUTLINE
  6
CONTINUOUS
 48
25.4
100
AcDbEllipse
 10
208.9889623849983
 20
591.2979090880281
 30
0.0
 11
-0.4999999999999975
 21
0.0000000000000278
 31
0.0
210
0.0
220
0.0
230
1.0
 40
0.4226182617
 41
3.102033822771015
 42
3.986085025679325
  0
LINE
  5
45F
330
2
100
AcDbEntity
  8
OUTLINE
  6
CONTINUOUS
 48
25.4
100
AcDbLine
 10
209.3210178289982
 20
591.4558909970279
 30
0.0
 11
207.3145324079983
 21
592.209135159028
 31
0.0
  0
ELLIPSE
  5
460
330
2
100
AcDbEntity
  8
OUTLINE
  6
CONTINUOUS
 48
25.4
100
AcDbEllipse
 10
207.8126155739981
 20
592.4461080225283
 30
0.0
 11
0.7500000000000036
 21
-0.0000000000000278
 31
0.0
210
0.0
220
0.0
230
1.0
 40
0.4226182617
 41
1.424435655503993
 42
3.986085025679295
  0
LINE
  5
461
330
2
100
AcDbEntity
  8
OUTLINE
  6
CONTINUOUS
 48
25.4
100
AcDbLine
 10
207.9219945894983
 20
592.7596828645282
 30
0.0
 11
210.5770806559982
 21
592.5942705185279
 31
0.0
  0
ELLIPSE
  5
462
330
2
100
AcDbEntity
  8
OUTLINE
  6
CONTINUOUS
 48
25.4
100
AcDbEllipse
 10
210.6499999999981
 20
592.8033204130279
 30
0.0
 11
-0.4999999999999866
 21
-0.0000000000000278
 31
0.0
210
0.0
220
0.0
230
1.0
 40
0.4226182617
 41
1.424435655503948
 42
2.062905615440913
  0
ELLIPSE
  5
463
330
2
100
AcDbEntity
  8
OUTLINE
  6
CONTINUOUS
 48
25.4
100
AcDbEllipse
 10
210.4083080029982
 20
592.8033204130279
 30
0.0
 11
0.7416919968363624
 21
0.0
 31
0.0
210
0.0
220
0.0
230
1.0
 40
0.4226182617
 41
1.520195560742362
 42
1.601861604251908
  0
LINE
  5
464
330
2
100
AcDbEntity
  8
OUTLINE
  6
CONTINUOUS
 48
25.4
100
AcDbLine
 10
210.3852708409982
 20
593.116621758528
 30
0.0
 11
209.6542260899981
 21
593.1070209635281
 31
0.0
  0
LINE
  5
465
330
2
100
AcDbEntity
  8
OUTLINE
  6
CONTINUOUS
 48
25.4
100
AcDbLine
 10
209.6542260899981
 20
593.1070209635281
 30
0.0
 11
209.6542260899981
 21
593.000196828528
 31
0.0
  0
LINE
  5
466
330
2
100
AcDbEntity
  8
OUTLINE
  6
CONTINUOUS
 48
25.4
100
AcDbLine
 10
209.6542260899981
 20
593.000196828528
 30
0.0
 11
207.6640107124981
 21
592.971350710528
 31
0.0
  0
ELLIPSE
  5
467
330
2
100
AcDbEntity
  8
OUTLINE
  6
CONTINUOUS
 48
25.4
100
AcDbEllipse
 10
207.6383040884983
 20
593.2881281660279
 30
0.0
 11
0.7499999999999935
 21
0.0
 31
0.0
210
0.0
220
0.0
230
1.0
 40
0.4226182617
 41
2.471633206702988
 42
4.746671193994247
  0
LINE
  5
468
330
2
100
AcDbEntity
  8
OUTLINE
  6
CONTINUOUS
 48
25.4
100
AcDbLine
 10
207.0504189519982
 20
593.4849481045278
 30
0.0
 11
207.9712553999983
 21
593.9761979285281
 31
0.0
  0
LINE
  5
469
330
2
100
AcDbEntity
  8
OUTLINE
  6
CONTINUOUS
 48
25.4
100
AcDbLine
 10
207.3704563709983
 20
594.0607128540278
 30
0.0
 11
206.8715756369983
 21
593.5285856530279
 31
0.0
  0
ELLIPSE
  5
46A
330
2
100
AcDbEntity
  8
OUTLINE
  6
CONTINUOUS
 48
25.4
100
AcDbEllipse
 10
206.1743114854982
 20
593.645340556528
 30
0.0
 11
0.7500000000000055
 21
-0.0000000000000278
 31
0.0
210
0.0
220
0.0
230
1.0
 40
0.4226182617000001
 41
3.344297832700225
 42
5.905947202877026
  0
LINE
  5
46B
330
2
100
AcDbEntity
  8
OUTLINE
  6
CONTINUOUS
 48
25.4
100
AcDbLine
 10
205.4396673179982
 20
593.581529470528
 30
0.0
 11
205.1826167249981
 21
594.1100915830283
 31
0.0
  0
LINE
  5
46C
330
2
100
AcDbEntity
  8
OUTLINE
  6
CONTINUOUS
 48
25.4
100
AcDbLine
 10
204.5991820229983
 20
594.057237311528
 30
0.0
 11
205.2456109514983
 21
593.5516796295281
 31
0.0
  0
ELLIPSE
  5
46D
330
2
100
AcDbEntity
  8
OUTLINE
  6
CONTINUOUS
 48
25.4
100
AcDbEllipse
 10
204.5857864374981
 20
593.4009928905278
 30
0.0
 11
-0.7499999999999939
 21
-0.0000000000000278
 31
0.0
210
0.0
220
0.0
230
1.0
 40
0.4226182617
 41
1.075369805107537
 42
3.637019175282834
  0
LINE
  5
46E
330
2
100
AcDbEntity
  8
OUTLINE
  6
CONTINUOUS
 48
25.4
100
AcDbLine
 10
204.2292312369981
 20
593.122139001528
 30
0.0
 11
202.3983930324983
 21
593.5402547775281
 31
0.0
  0
LINE
  5
46F
330
2
100
AcDbEntity
  8
OUTLINE
  6
CONTINUOUS
 48
25.4
100
AcDbLine
 10
201.7716174539981
 20
593.247460237528
 30
0.0
 11
204.1586004959983
 21
593.0401272370279
 31
0.0
  0
ELLIPSE
  5
470
330
2
100
AcDbEntity
  8
OUTLINE
  6
CONTINUOUS
 48
25.4
100
AcDbEllipse
 10
204.0076106034983
 20
592.729653196028
 30
0.0
 11
-0.7499999999999865
 21
-0.0000000000000278
 31
0.0
210
0.0
220
0.0
230
1.0
 40
0.4226182617000001
 41
1.948034431103959
 42
4.509683801280038
  0
LINE
  5
471
330
2
100
AcDbEntity
  8
OUTLINE
  6
CONTINUOUS
 48
25.4
100
AcDbLine
 10
204.2838762409981
 20
592.4349766320281
 30
0.0
 11
201.7888047804983
 21
592.0171839970278
 31
0.0
  0
ELLIPSE
  5
472
330
2
100
AcDbEntity
  8
OUTLINE
  6
CONTINUOUS
 48
25.4
100
AcDbEllipse
 10
201.9729818719981
 20
591.820732954528
 30
0.0
 11
0.5000000000000064
 21
0.0000000000000555
 31
0.0
210
0.0
220
0.0
230
1.0
 40
0.4226182617000001
 41
1.948034431103863
 42
2.83208563401122
  0
ELLIPSE
  5
473
330
2
100
AcDbEntity
  8
OUTLINE
  6
CONTINUOUS
 48
25.4
100
AcDbEllipse
 10
201.9729818719981
 20
591.820732954528
 30
0.0
 11
0.5000000000000064
 21
0.0000000000000555
 31
0.0
210
0.0
220
0.0
230
1.0
 40
0.4226182617000001
 41
4.498297224365341
 42
5.38234842727645
  0
LINE
  5
474
330
2
100
AcDbEntity
  8
OUTLINE
  6
CONTINUOUS
 48
25.4
100
AcDbLine
 10
202.2834589724983
 20
591.655098958528
 30
0.0
 11
204.3871314769981
 21
592.3593941815278
 31
0.0
  0
ELLIPSE
  5
475
330
2
100
AcDbEntity
  8
OUTLINE
  6
CONTINUOUS
 48
25.4
100
AcDbEllipse
 10
204.8528471269983
 20
592.1109431870279
 30
0.0
 11
-0.7500000000000046
 21
0.0
 31
0.0
210
0.0
220
0.0
230
1.0
 40
0.4226182617
 41
2.820699057100215
 42
5.382348427276683
  0
LINE
  5
476
330
2
100
AcDbEntity
  8
OUTLINE
  6
CONTINUOUS
 48
25.4
100
AcDbLine
 10
205.5645625849983
 20
592.0109681880281
 30
0.0
 11
204.7180590019983
 21
590.9346509180283
 31
0.0
  0
ELLIPSE
  5
477
330
2
100
AcDbEntity
  8
OUTLINE
  6
CONTINUOUS
 48
25.4
100
AcDbEllipse
 10
205.1925359734982
 20
590.8680009185278
 30
0.0
 11
0.5000000000000026
 21
-0.0000000000000278
 31
0.0
210
0.0
220
0.0
230
1.0
 40
0.4226182617
 41
2.820699057100096
 42
3.704750260037843
  0
ELLIPSE
  5
478
330
2
100
AcDbEntity
  8
OUTLINE
  6
CONTINUOUS
 48
25.4
100
AcDbEllipse
 10
205.1925359734982
 20
590.8680009185278
 30
0.0
 11
0.5000000000000026
 21
-0.0000000000000278
 31
0.0
210
0.0
220
0.0
230
1.0
 40
0.4226182617
 41
5.370961850335818
 42
6.255013053274712
  0
LINE
  5
479
330
2
100
AcDbEntity
  8
OUTLINE
  6
CONTINUOUS
 48
25.4
100
AcDbLine
 10
205.6923375679983
 20
590.8620486515281
 30
0.0
 11
205.7679356989982
 21
591.9958130265277
 31
0.0
  0
ELLIPSE
  5
47A
330
2
100
AcDbEntity
  8
OUTLINE
  6
CONTINUOUS
 48
25.4
100
AcDbEllipse
 10
206.5176380899981
 20
591.9868846255281
 30
0.0
 11
-0.7500000000000006
 21
0.0000000000000555
 31
0.0
210
0.0
220
0.0
230
1.0
 40
0.4226182617
 41
3.693363683095638
 42
6.255013053274852
  0
LINE
  5
47B
330
2
100
AcDbEntity
  8
OUTLINE
  6
CONTINUOUS
 48
25.4
100
AcDbLine
 10
207.1563362084983
 20
592.1530358080281
 30
0.0
 11
208.5631636394983
 21
591.187141633028
 31
0.0
  0
LINE
  5
47C
330
2
100
AcDbEntity
  8
OUTLINE
  6
CONTINUOUS
 48
25.4
100
AcDbLine
 10
201.2229818719981
 20
592.792907345528
 30
0.0
 11
201.2229818719981
 21
592.1793180295281
 31
0.0
  0
LINE
  5
47D
330
2
100
AcDbEntity
  8
OUTLINE
  6
CONTINUOUS
 48
25.4
100
AcDbLine
 10
204.4425359734982
 20
592.2431534220279
 30
0.0
 11
204.4425359734982
 21
590.8680009185278
 31
0.0
  0
LINE
  5
47E
330
2
100
AcDbEntity
  8
OUTLINE
  6
CONTINUOUS
 48
25.4
100
AcDbLine
 10
209.7389623849981
 20
591.400370343528
 30
0.0
 11
209.7389623849981
 21
592.5396890480279
 31
0.0
  0
LINE
  5
47F
330
2
100
AcDbEntity
  8
OUTLINE
  6
CONTINUOUS
 48
25.4
100
AcDbLine
 10
207.0626155739982
 20
593.0849710645283
 30
0.0
 11
207.0626155739982
 21
592.4461080225283
 31
0.0
  0
LINE
  5
480
330
2
100
AcDbEntity
  8
OUTLINE
  6
CONTINUOUS
 48
25.4
100
AcDbLine
 10
206.8883040884982
 20
593.5464289235279
 30
0.0
 11
206.8883040884982
 21
593.2881281660279
 31
0.0
  0
LINE
  5
481
330
2
100
AcDbEntity
  8
OUTLINE
  6
CONTINUOUS
 48
25.4
100
AcDbLine
 10
205.3357864374983
 20
593.4009928905278
 30
0.0
 11
205.3357864374983
 21
593.7951352710277
 31
0.0
  0
LINE
  5
482
330
2
100
AcDbEntity
  8
OUTLINE
  6
CONTINUOUS
 48
25.4
100
AcDbLine
 10
204.7576106034983
 20
592.729653196028
 30
0.0
 11
204.7576106034983
 21
593.0924594290278
 31
0.0
  0
LINE
  5
483
330
2
100
AcDbEntity
  8
OUTLINE
  6
CONTINUOUS
 48
25.4
100
AcDbLine
 10
205.6028471269983
 20
592.1109431870279
 30
0.0
 11
205.6028471269983
 21
593.4400644265281
 31
0.0
  0
ELLIPSE
  5
484
330
2
100
AcDbEntity
  8
OUTLINE
  6
CONTINUOUS
 48
25.4
100
AcDbEllipse
 10
205.9999999999983
 20
608.2105527925278
 30
0.0
 11
8.0
 21
0.0
 31
0.0
210
0.0
220
0.0
230
1.0
 40
0.4226182617000001
 41
0.0
 42
3.141592653589792
  0
ELLIPSE
  5
485
330
2
100
AcDbEntity
  8
OUTLINE
  6
CONTINUOUS
 48
25.4
100
AcDbEllipse
 10
205.9999999999983
 20
592.8033204130279
 30
0.0
 11
-5.0
 21
0.0
 31
0.0
210
0.0
220
0.0
230
1.0
 40
0.4226182617
 41
0.1506850797893521
 42
2.990907573800441
  0
ELLIPSE
  5
486
330
2
100
AcDbEntity
  8
OUTLINE
  6
CONTINUOUS
 48
25.4
100
AcDbEllipse
 10
205.9999999999983
 20
592.1689049620281
 30
0.0
 11
5.0
 21
0.0
 31
0.0
210
0.0
220
0.0
230
1.0
 40
0.4226182617
 41
0.0
 42
0.4290000572497169
  0
ELLIPSE
  5
487
330
2
100
AcDbEntity
  8
OUTLINE
  6
CONTINUOUS
 48
25.4
100
AcDbEllipse
 10
205.9999999999983
 20
592.1689049620281
 30
0.0
 11
5.0
 21
0.0
 31
0.0
210
0.0
220
0.0
230
1.0
 40
0.4226182617
 41
2.712592596340076
 42
6.283185307179584
  0
ELLIPSE
  5
488
330
2
100
AcDbEntity
  8
OUTLINE
  6
CONTINUOUS
 48
25.4
100
AcDbEllipse
 10
205.9999999999983
 20
591.8970126260282
 30
0.0
 11
-7.699999999999997
 21
0.0
 31
0.0
210
0.0
220
0.0
230
0.9999999999999998
 40
0.4226182617
 41
0.0
 42
6.283185307179584
  0
ELLIPSE
  5
489
330
2
100
AcDbEntity
  8
OUTLINE
  6
CONTINUOUS
 48
25.4
100
AcDbEllipse
 10
205.9999999999983
 20
591.8970126260282
 30
0.0
 11
5.299999999999999
 21
0.0
 31
0.0
210
0.0
220
0.0
230
1.0
 40
0.4226182617
 41
0.0
 42
6.283185307179584
  0
ELLIPSE
  5
48A
330
2
100
AcDbEntity
  8
OUTLINE
  6
CONTINUOUS
 48
25.4
100
AcDbEllipse
 10
205.9999999999983
 20
592.1689049620281
 30
0.0
 11
8.0
 21
0.0
 31
0.0
210
0.0
220
0.0
230
1.0
 40
0.4226182617000001
 41
5.798073060705807
 42
6.283185307179584
  0
ELLIPSE
  5
48B
330
2
100
AcDbEntity
  8
OUTLINE
  6
CONTINUOUS
 48
25.4
100
AcDbEllipse
 10
205.9999999999983
 20
592.1689049620281
 30
0.0
 11
8.0
 21
0.0
 31
0.0
210
0.0
220
0.0
230
1.0
 40
0.4226182617000001
 41
0.0
 42
3.626704900063569
  0
LINE
  5
48C
330
2
100
AcDbEntity
  8
OUTLINE
  6
CONTINUOUS
 48
25.4
100
AcDbLine
 10
213.9999999999983
 20
592.1689049620281
 30
0.0
 11
213.9999999999983
 21
608.2105527925278
 31
0.0
  0
LINE
  5
48D
330
2
100
AcDbEntity
  8
OUTLINE
  6
CONTINUOUS
 48
25.4
100
AcDbLine
 10
197.9999999999983
 20
608.2105527925278
 30
0.0
 11
197.9999999999983
 21
592.1689049620281
 31
0.0
  0
LINE
  5
48E
330
2
100
AcDbEntity
  8
OUTLINE
  6
CONTINUOUS
 48
25.4
100
AcDbLine
 10
198.9230190934983
 20
590.5923439065278
 30
0.0
 11
199.1884058774983
 21
590.3795726100281
 31
0.0
  0
LINE
  5
48F
330
2
100
AcDbEntity
  8
OUTLINE
  6
CONTINUOUS
 48
25.4
100
AcDbLine
 10
212.8115941219983
 20
590.3795726100281
 30
0.0
 11
213.0769809059982
 21
590.5923439065278
 31
0.0
  0
ELLIPSE
  5
490
330
2
100
AcDbEntity
  8
OUTLINE
  6
CONTINUOUS
 48
25.4
100
AcDbEllipse
 10
205.9999999999983
 20
608.2105527925278
 30
0.0
 11
8.0
 21
0.0
 31
0.0
210
0.0
220
0.0
230
1.0
 40
0.4226182617000001
 41
0.0
 42
3.141592653589792
  0
ELLIPSE
  5
491
330
2
100
AcDbEntity
  8
OUTLINE
  6
CONTINUOUS
 48
25.4
100
AcDbEllipse
 10
205.9999999999983
 20
615.461015089028
 30
0.0
 11
-8.0
 21
0.0
 31
0.0
210
0.0
220
0.0
230
1.0
 40
0.4226182617000001
 41
3.141592653589792
 42
6.283185307179584
  0
LINE
  5
492
330
2
100
AcDbEntity
  8
OUTLINE
  6
CONTINUOUS
 48
25.4
100
AcDbLine
 10
197.9999999999983
 20
578.4819171865279
 30
0.0
 11
213.9999999999983
 21
578.4819171865279
 31
0.0
  0
LINE
  5
493
330
2
100
AcDbEntity
  8
OUTLINE
  6
CONTINUOUS
 48
25.4
100
AcDbLine
 10
195.0999999999983
 20
476.6290638330281
 30
0.0
 11
216.8999999999983
 21
476.6290638330281
 31
0.0
  0
LINE
  5
494
330
2
100
AcDbEntity
  8
OUTLINE
  6
CONTINUOUS
 48
25.4
100
AcDbLine
 10
197.9999999999983
 20
506.9538062060281
 30
0.0
 11
213.9999999999983
 21
506.9538062060281
 31
0.0
  0
LINE
  5
495
330
2
100
AcDbEntity
  8
OUTLINE
  6
CONTINUOUS
 48
25.4
100
AcDbLine
 10
214.1812499999983
 20
505.058509808028
 30
0.0
 11
197.8187499999981
 21
505.058509808028
 31
0.0
  0
LINE
  5
496
330
2
100
AcDbEntity
  8
OUTLINE
  6
CONTINUOUS
 48
25.4
100
AcDbLine
 10
197.9999999999983
 20
615.461015089028
 30
0.0
 11
197.9999999999983
 21
608.2105527925278
 31
0.0
  0
LINE
  5
497
330
2
100
AcDbEntity
  8
OUTLINE
  6
CONTINUOUS
 48
25.4
100
AcDbLine
 10
213.9999999999983
 20
608.2105527925278
 30
0.0
 11
213.9999999999983
 21
615.461015089028
 31
0.0
  0
ARC
  5
498
330
2
100
AcDbEntity
  8
OUTLINE
  6
CONTINUOUS
 48
25.4
100
AcDbCircle
 10
205.9999999999983
 20
665.9819171865279
 30
0.0
 40
8.0
100
AcDbArc
 50
0.0
 51
180.0
  0
LINE
  5
499
330
2
100
AcDbEntity
  8
OUTLINE
  6
CONTINUOUS
 48
25.4
100
AcDbLine
 10
213.9999999999983
 20
578.4819171865279
 30
0.0
 11
213.9999999999983
 21
592.1689049620281
 31
0.0
  0
LINE
  5
49A
330
2
100
AcDbEntity
  8
OUTLINE
  6
CONTINUOUS
 48
25.4
100
AcDbLine
 10
213.9999999999983
 20
615.461015089028
 30
0.0
 11
213.9999999999983
 21
665.9819171865279
 31
0.0
  0
LINE
  5
49B
330
2
100
AcDbEntity
  8
OUTLINE
  6
CONTINUOUS
 48
25.4
100
AcDbLine
 10
197.9999999999983
 20
665.9819171865279
 30
0.0
 11
197.9999999999983
 21
615.461015089028
 31
0.0
  0
LINE
  5
49C
330
2
100
AcDbEntity
  8
OUTLINE
  6
CONTINUOUS
 48
25.4
100
AcDbLine
 10
197.9999999999983
 20
592.1689049620281
 30
0.0
 11
197.9999999999983
 21
578.4819171865279
 31
0.0
  0
LINE
  5
49D
330
2
100
AcDbEntity
  8
OUTLINE
  6
CONTINUOUS
 48
25.4
100
AcDbLine
 10
213.9999999999983
 20
506.9538062060281
 30
0.0
 11
213.9999999999983
 21
578.4819171865279
 31
0.0
  0
LINE
  5
49E
330
2
100
AcDbEntity
  8
OUTLINE
  6
CONTINUOUS
 48
25.4
100
AcDbLine
 10
197.9999999999983
 20
578.4819171865279
 30
0.0
 11
197.9999999999983
 21
506.9538062060281
 31
0.0
  0
ARC
  5
49F
330
2
100
AcDbEntity
  8
OUTLINE
  6
CONTINUOUS
 48
25.4
100
AcDbCircle
 10
66.89999999999827
 20
476.6290638330281
 30
0.0
 40
149.9999999999999
100
AcDbArc
 50
0.0
 51
10.92533579699995
  0
ARC
  5
4A0
330
2
100
AcDbEntity
  8
OUTLINE
  6
CONTINUOUS
 48
25.4
100
AcDbCircle
 10
345.0999999999983
 20
476.6290638330281
 30
0.0
 40
150.0
100
AcDbArc
 50
169.0746642029999
 51
180.0
  0
LINE
  5
4A1
330
2
100
AcDbEntity
  8
OUTLINE
  6
CONTINUOUS
 48
25.4
100
AcDbLine
 10
195.0999999999983
 20
476.6290638330281
 30
0.0
 11
195.0999999999983
 21
471.594555221528
 31
0.0
  0
LINE
  5
4A2
330
2
100
AcDbEntity
  8
OUTLINE
  6
CONTINUOUS
 48
25.4
100
AcDbLine
 10
216.8999999999983
 20
471.5975793950278
 30
0.0
 11
216.8999999999983
 21
476.6290638330281
 31
0.0
  0
ARC
  5
4A3
330
2
100
AcDbEntity
  8
OUTLINE
  6
CONTINUOUS
 48
25.4
100
AcDbCircle
 10
187.9999999999983
 20
506.9538062060281
 30
0.0
 40
10.0
100
AcDbArc
 50
349.0746642030001
 51
0.0
  0
ARC
  5
4A4
330
2
100
AcDbEntity
  8
OUTLINE
  6
CONTINUOUS
 48
25.4
100
AcDbCircle
 10
223.9999999999983
 20
506.9538062060281
 30
0.0
 40
10.0
100
AcDbArc
 50
180.0
 51
190.9253357969998
  0
LINE
  5
4A5
330
2
100
AcDbEntity
  8
OUTLINE
  6
CONTINUOUS
 48
25.4
100
AcDbLine
 10
233.8499999999983
 20
437.9819171865281
 30
0.0
 11
233.8499999999983
 21
408.9819171865281
 31
0.0
  0
LINE
  5
4A6
330
2
100
AcDbEntity
  8
OUTLINE
  6
CONTINUOUS
 48
25.4
100
AcDbLine
 10
251.1327097149983
 20
430.4498319570281
 30
0.0
 11
245.3392676454983
 21
430.607327223028
 31
0.0
  0
LINE
  5
4A7
330
2
100
AcDbEntity
  8
OUTLINE
  6
CONTINUOUS
 48
25.4
100
AcDbLine
 10
245.3392676454983
 20
430.607327223028
 30
0.0
 11
244.8499999999981
 21
430.617717029528
 31
0.0
  0
SPLINE
  5
4A8
330
2
100
AcDbEntity
  8
OUTLINE
  6
CONTINUOUS
 48
25.4
100
AcDbSpline
210
0.0
220
0.0
230
1.0
 70
     8
 71
     3
 72
    22
 73
    18
 74
     0
 42
0.0000000001
 43
0.0000000001
 40
0.0
 40
0.0
 40
0.0
 40
0.0
 40
0.0322754152287253
 40
0.0659780549092453
 40
0.1011168190328307
 40
0.1376962108190175
 40
0.1757167648292237
 40
0.2151753916230193
 40
0.2560656539574231
 40
0.3751982038725188
 40
0.5094158836072733
 40
0.6210082670841255
 40
0.7583836588926599
 40
0.8197912495290452
 40
0.8803134505184145
 40
0.9399879786124888
 40
1.0
 40
1.0
 40
1.0
 40
1.0
 10
247.1251006523731
 20
438.0972074566471
 30
0.0
 10
247.1215903377989
 20
438.0172985342624
 30
0.0
 10
247.1144144819316
 20
437.8539471031048
 30
0.0
 10
247.0912913368469
 20
437.6035321773535
 30
0.0
 10
247.059057172577
 20
437.3425487768023
 30
0.0
 10
247.0167266939315
 20
437.0710148407995
 30
0.0
 10
246.9645909987653
 20
436.7889735373726
 30
0.0
 10
246.9025790167475
 20
436.4964666506835
 30
0.0
 10
246.7857303684875
 20
436.0038307468649
 30
0.0
 10
246.5806317173039
 20
435.2779011384305
 30
0.0
 10
246.2824974476538
 20
434.3765948989475
 30
0.0
 10
245.9356085746955
 20
433.4272449895046
 30
0.0
 10
245.6383945618747
 20
432.6525945131605
 30
0.0
 10
245.384012599025
 20
431.9999618779776
 30
0.0
 10
245.2031973939806
 20
431.5403887468058
 30
0.0
 10
245.0240245610336
 20
431.0812502274687
 30
0.0
 10
244.9081171324972
 20
430.7725182838749
 30
0.0
 10
244.8499999997833
 20
430.6177170294131
 30
0.0
  0
ELLIPSE
  5
4A9
330
2
100
AcDbEntity
  8
OUTLINE
  6
CONTINUOUS
 48
25.4
100
AcDbEllipse
 10
247.0312840774983
 20
436.854828209528
 30
0.0
 11
1.998874569959791
 21
-0.067443769414352
 31
0.0
210
0.0
220
0.0
230
1.0
 40
0.6226238186000002
 41
1.544859524944899
 42
2.851775204021766
  0
ARC
  5
4AA
330
2
100
AcDbEntity
  8
OUTLINE
  6
CONTINUOUS
 48
25.4
100
AcDbCircle
 10
248.2231675344983
 20
437.8662569290279
 30
0.0
 40
3.151336310254589
100
AcDbArc
 50
178.2946372094998
 51
181.6213903506995
  0
ARC
  5
4AB
330
2
100
AcDbEntity
  8
OUTLINE
  6
CONTINUOUS
 48
25.4
100
AcDbCircle
 10
248.2231675344983
 20
437.8662569290279
 30
0.0
 40
3.151336310254589
100
AcDbArc
 50
181.6213903506995
 51
190.8117134931
  0
ARC
  5
4AC
330
2
100
AcDbEntity
  8
OUTLINE
  6
CONTINUOUS
 48
25.4
100
AcDbCircle
 10
218.5875137424983
 20
435.0479797280279
 30
0.0
 40
26.63353923125092
100
AcDbArc
 50
350.4248265681994
 51
4.796774071299996
  0
SPLINE
  5
4AD
330
2
100
AcDbEntity
  8
OUTLINE
  6
CONTINUOUS
 48
25.4
100
AcDbSpline
210
0.0
220
0.0
230
1.0
 70
     8
 71
     3
 72
    12
 73
     8
 74
     0
 42
0.0000000001
 43
0.0000000001
 40
0.0
 40
0.0
 40
0.0
 40
0.0
 40
0.0456812814924506
 40
0.0889425695505893
 40
0.12982449183165
 40
0.198165989059818
 40
0.2000201490158039
 40
0.2000201490158039
 40
0.2000201490158039
 40
0.2000201490158039
 10
244.0827003656806
 20
437.3364496643272
 30
0.0
 10
244.1155766622729
 20
437.3992812239746
 30
0.0
 10
244.1795876138204
 20
437.5216158035065
 30
0.0
 10
244.3010921062914
 20
437.6432314241649
 30
0.0
 10
244.4719256038339
 20
437.7397614930306
 30
0.0
 10
244.6297119576253
 20
437.7621578915015
 30
0.0
 10
244.7446088685359
 20
437.757874602227
 30
0.0
 10
244.7476544233955
 20
437.7577486156051
 30
0.0
  0
SPLINE
  5
4AE
330
2
100
AcDbEntity
  8
OUTLINE
  6
CONTINUOUS
 48
25.4
100
AcDbSpline
210
0.0
220
0.0
230
1.0
 70
     8
 71
     3
 72
    15
 73
    11
 74
     0
 42
0.0000000001
 43
0.0000000001
 40
0.0
 40
0.0
 40
0.0
 40
0.0
 40
0.1370629813254186
 40
0.2704786058454067
 40
0.4003364474940569
 40
0.5267342057815631
 40
0.6497783611643643
 40
0.7695848523960353
 40
0.8862797630990058
 40
1.0
 40
1.0
 40
1.0
 40
1.0
 10
244.138198268802
 20
436.5658834901585
 30
0.0
 10
244.1247074322943
 20
436.6088945796219
 30
0.0
 10
244.0980847613511
 20
436.6937721986658
 30
0.0
 10
244.0687393771767
 20
436.8113614766788
 30
0.0
 10
244.0479426181304
 20
436.9200422400871
 30
0.0
 10
244.0363808288712
 20
437.0196545893965
 30
0.0
 10
244.0338092652805
 20
437.1107857405582
 30
0.0
 10
244.0405430460739
 20
437.1936534009801
 30
0.0
 10
244.0556056622399
 20
437.2691904639269
 30
0.0
 10
244.0737441003491
 20
437.3142239052127
 30
0.0
 10
244.0827003656806
 20
437.3364496643272
 30
0.0
  0
ARC
  5
4AF
330
2
100
AcDbEntity
  8
OUTLINE
  6
CONTINUOUS
 48
25.4
100
AcDbCircle
 10
222.0491296859981
 20
430.905868685528
 30
0.0
 40
22.80269103535228
100
AcDbArc
 50
359.2759489145998
 51
14.37202652009956
  0
ELLIPSE
  5
4B0
330
2
100
AcDbEntity
  8
OUTLINE
  6
CONTINUOUS
 48
25.4
100
AcDbEllipse
 10
244.1213181439983
 20
438.304454089028
 30
0.0
 11
-0.9187144936324967
 21
0.3949229515762052
 31
0.0
210
0.0
220
0.0
230
0.9999999999999998
 40
0.9644264557000003
 41
1.924962375239439
 42
3.153746232173401
  0
ARC
  5
4B1
330
2
100
AcDbEntity
  8
OUTLINE
  6
CONTINUOUS
 48
25.4
100
AcDbCircle
 10
244.1330984459983
 20
437.617973883528
 30
0.0
 40
1.052102753669454
100
AcDbArc
 50
270.2777290175998
 51
340.9815580666999
  0
LINE
  5
4B2
330
2
100
AcDbEntity
  8
OUTLINE
  6
CONTINUOUS
 48
25.4
100
AcDbLine
 10
256.6803879939982
 20
411.765334732528
 30
0.0
 11
256.6803879939982
 21
429.3402084135282
 31
0.0
  0
LINE
  5
4B3
330
2
100
AcDbEntity
  8
OUTLINE
  6
CONTINUOUS
 48
25.4
100
AcDbLine
 10
254.8392561554983
 20
430.3156511645282
 30
0.0
 11
251.1327097149983
 21
430.4498319570281
 31
0.0
  0
ARC
  5
4B4
330
2
100
AcDbEntity
  8
OUTLINE
  6
CONTINUOUS
 48
25.4
100
AcDbCircle
 10
2.425351876998319
 20
434.0488987875279
 30
0.0
 40
252.4415105633294
100
AcDbArc
 50
359.1526469060001
 51
8.054214474200094
  0
LINE
  5
4B5
330
2
100
AcDbEntity
  8
OUTLINE
  6
CONTINUOUS
 48
25.4
100
AcDbLine
 10
254.8392561554983
 20
430.3156511645282
 30
0.0
 11
254.8392561554983
 21
409.814449231028
 31
0.0
  0
SPLINE
  5
4B6
330
2
100
AcDbEntity
  8
OUTLINE
  6
CONTINUOUS
 48
25.4
100
AcDbSpline
210
0.0
220
0.0
230
1.0
 70
     8
 71
     3
 72
    14
 73
    10
 74
     0
 42
0.0000000001
 43
0.0000000001
 40
0.0
 40
0.0
 40
0.0
 40
0.0
 40
0.25
 40
0.25
 40
0.5
 40
0.5
 40
0.75
 40
0.75
 40
1.0
 40
1.0
 40
1.0
 40
1.0
 10
256.680387993787
 20
429.3402084137134
 30
0.0
 10
256.6751408413419
 20
429.462687924569
 30
0.0
 10
256.6243813937786
 20
429.5846429651381
 30
0.0
 10
256.4385579996355
 20
429.8113583626603
 30
0.0
 10
256.3035501955697
 20
429.9160502224676
 30
0.0
 10
255.9672161841825
 20
430.0942420099395
 30
0.0
 10
255.7659915928983
 20
430.1676881008163
 30
0.0
 10
255.3240675529028
 20
430.2735570794884
 30
0.0
 10
255.0835016219689
 20
430.3059479812654
 30
0.0
 10
254.8392562529097
 20
430.315651777157
 30
0.0
  0
ARC
  5
4B7
330
2
100
AcDbEntity
  8
OUTLINE
  6
CONTINUOUS
 48
25.4
100
AcDbCircle
 10
-5.909396596501665
 20
432.489945053028
 30
0.0
 40
262.6086742895507
100
AcDbArc
 50
359.3127761538003
 51
4.287315248200489
  0
ARC
  5
4B8
330
2
100
AcDbEntity
  8
OUTLINE
  6
CONTINUOUS
 48
25.4
100
AcDbCircle
 10
685.8652427824982
 20
421.888748280528
 30
0.0
 40
439.0394361162277
100
AcDbArc
 50
173.7757673635995
 51
177.8842734590001
  0
ARC
  5
4B9
330
2
100
AcDbEntity
  8
OUTLINE
  6
CONTINUOUS
 48
25.4
100
AcDbCircle
 10
249.5100859764983
 20
467.344102566528
 30
0.0
 40
2.147375831157216
100
AcDbArc
 50
92.56841215819999
 51
175.2984307542998
  0
ARC
  5
4BA
330
2
100
AcDbEntity
  8
OUTLINE
  6
CONTINUOUS
 48
25.4
100
AcDbCircle
 10
250.3248250339983
 20
445.589629169528
 30
0.0
 40
23.91704709093251
100
AcDbArc
 50
85.07831720159998
 51
92.18284626989998
  0
ARC
  5
4BB
330
2
100
AcDbEntity
  8
OUTLINE
  6
CONTINUOUS
 48
25.4
100
AcDbCircle
 10
252.2036419644983
 20
467.2544722985279
 30
0.0
 40
2.170933230256394
100
AcDbArc
 50
7.731659796900077
 51
85.42608029800002
  0
SPLINE
  5
4BC
330
2
100
AcDbEntity
  8
OUTLINE
  6
CONTINUOUS
 48
25.4
100
AcDbSpline
210
0.0
220
0.0
230
1.0
 70
    12
 71
     2
 72
     6
 73
     3
 74
     0
 42
0.0000000001
 43
0.0000000001
 40
0.6605068945416299
 40
0.6605068945416299
 40
0.6605068945416299
 40
1.0
 40
1.0
 40
1.0
 10
249.3946485429753
 20
469.5896312656379
 30
0.0
 41
0.7979568281245353
 10
249.4031560437061
 20
469.5898765402278
 30
0.0
 41
0.8470544565506193
 10
249.4138572620203
 20
469.4893212023726
 30
0.0
 41
1.0
  0
SPLINE
  5
4BD
330
2
100
AcDbEntity
  8
OUTLINE
  6
CONTINUOUS
 48
25.4
100
AcDbSpline
210
0.0
220
0.0
230
1.0
 70
    12
 71
     2
 72
     6
 73
     3
 74
     0
 42
0.0000000001
 43
0.0000000001
 40
0.6596502869365906
 40
0.6596502869365906
 40
0.6596502869365906
 40
1.0
 40
1.0
 40
1.0
 10
252.3982950693953
 20
469.5188272028126
 30
0.0
 41
0.7970929140572843
 10
252.391170590528
 20
469.519358325964
 30
0.0
 41
0.8462010174474308
 10
252.3767634585608
 20
469.4184917157906
 30
0.0
 41
1.0
  0
LINE
  5
4BE
330
2
100
AcDbEntity
  8
OUTLINE
  6
CONTINUOUS
 48
25.4
100
AcDbLine
 10
233.8499999999983
 20
437.9819171865281
 30
0.0
 11
229.3019035369983
 21
437.9819171865281
 31
0.0
  0
LINE
  5
4BF
330
2
100
AcDbEntity
  8
OUTLINE
  6
CONTINUOUS
 48
25.4
100
AcDbLine
 10
230.3184496119983
 20
408.9819171865281
 30
0.0
 11
233.8499999999983
 21
408.9819171865281
 31
0.0
  0
ARC
  5
4C0
330
2
100
AcDbEntity
  8
OUTLINE
  6
CONTINUOUS
 48
25.4
100
AcDbCircle
 10
233.8499999999983
 20
673.981917186528
 30
0.0
 40
265.0
100
AcDbArc
 50
270.0
 51
274.5428556529998
  0
ARC
  5
4C1
330
2
100
AcDbEntity
  8
OUTLINE
  6
CONTINUOUS
 48
25.4
100
AcDbCircle
 10
233.8499999999983
 20
172.981917186528
 30
0.0
 40
265.0
100
AcDbArc
 50
87.64301671660003
 51
90.0
  0
ARC
  5
4C2
330
2
100
AcDbEntity
  8
OUTLINE
  6
CONTINUOUS
 48
25.4
100
AcDbCircle
 10
-290.2986841400016
 20
423.4819171865281
 30
0.0
 40
547.1045454545079
100
AcDbArc
 50
358.7728816094993
 51
2.008385272999796
  0
ARC
  5
4C3
330
2
100
AcDbEntity
  8
OUTLINE
  6
CONTINUOUS
 48
25.4
100
AcDbCircle
 10
656.1795174999982
 20
421.0878299670281
 30
0.0
 40
411.4384264759283
100
AcDbArc
 50
173.5202435485998
 51
177.6758886761997
  0
ARC
  5
4C4
330
2
100
AcDbEntity
  8
OUTLINE
  6
CONTINUOUS
 48
25.4
100
AcDbCircle
 10
244.7273858829983
 20
438.1457847340281
 30
0.0
 40
0.3877662029742085
100
AcDbArc
 50
271.5316717959999
 51
325.5288806130004
  0
SPLINE
  5
4C5
330
2
100
AcDbEntity
  8
OUTLINE
  6
CONTINUOUS
 48
25.4
100
AcDbSpline
210
0.0
220
0.0
230
1.0
 70
     8
 71
     3
 72
     8
 73
     4
 74
     0
 42
0.0000000001
 43
0.0000000001
 40
0.4990521483712122
 40
0.4990521483712122
 40
0.4990521483712122
 40
0.4990521483712122
 40
1.0
 40
1.0
 40
1.0
 40
1.0
 10
245.0606875268995
 20
437.9607278882006
 30
0.0
 10
245.0561674628257
 20
437.9546370750863
 30
0.0
 10
245.050771933275
 20
437.9410898147589
 30
0.0
 10
245.0445009382471
 20
437.920086107219
 30
0.0
  0
ARC
  5
4C6
330
2
100
AcDbEntity
  8
OUTLINE
  6
CONTINUOUS
 48
25.4
100
AcDbCircle
 10
46.32576846849826
 20
437.8206005005278
 30
0.0
 40
210.1379927159165
100
AcDbArc
 50
3.913521915099427
 51
8.132192346600598
  0
ARC
  5
4C7
330
2
100
AcDbEntity
  8
OUTLINE
  6
CONTINUOUS
 48
25.4
100
AcDbCircle
 10
254.6808466749983
 20
411.808165970528
 30
0.0
 40
1.999999999999995
100
AcDbArc
 50
274.5428556529998
 51
358.7728816094003
  0
ARC
  5
4C8
330
2
100
AcDbEntity
  8
OUTLINE
  6
CONTINUOUS
 48
25.4
100
AcDbCircle
 10
249.5688770899983
 20
467.395102591528
 30
0.0
 40
2.201461337798239
100
AcDbArc
 50
94.53653844810004
 51
176.1218037623
  0
ARC
  5
4C9
330
2
100
AcDbEntity
  8
OUTLINE
  6
CONTINUOUS
 48
25.4
100
AcDbCircle
 10
250.3294307999983
 20
445.4992385470279
 30
0.0
 40
24.10852198758023
100
AcDbArc
 50
85.07714791210002
 51
92.22215737450001
  0
ARC
  5
4CA
330
2
100
AcDbEntity
  8
OUTLINE
  6
CONTINUOUS
 48
25.4
100
AcDbCircle
 10
252.1208646899983
 20
467.2925389830282
 30
0.0
 40
2.243507290272694
100
AcDbArc
 50
9.501650653500199
 51
82.8968690589
  0
POINT
  5
4E1
330
2
100
AcDbEntity
  8
0
  6
CONTINUOUS
 62
     5
100
AcDbPoint
 10
205.9999999997482
 20
400.4819171865281
 30
0.0
  0
ENDSEC
  0
SECTION
  2
OBJECTS
  0
DICTIONARY
  5
A
330
0
100
AcDbDictionary
  3
ACAD_COLOR
350
30
  3
ACAD_GROUP
350
2C
  3
ACAD_LAYOUT
350
F
  3
ACAD_MATERIAL
350
2F
  3
ACAD_MLINESTYLE
350
2D
  3
ACAD_PLOTSETTINGS
350
2E
  3
ACAD_PLOTSTYLENAME
350
9
  3
ACAD_TABLESTYLE
350
31
  3
ACDBVARIABLEDICTIONARY
350
4CC
  3
ACDBHEADERROUNDTRIPXREC
350
4F4
  0
DICTIONARY
  5
3
330
2
100
AcDbDictionary
280
     1
  3
ACAD_LAYOUTSELFREF
360
515
  3
ACAD_SORTENTS
360
4CB
  0
DICTIONARY
  5
12
330
11
100
AcDbDictionary
280
     1
  3
ACAD_LAYOUTSELFREF
360
516
  0
DICTIONARY
  5
30
102
{ACAD_REACTORS
330
A
102
}
330
A
100
AcDbDictionary
  0
DICTIONARY
  5
2C
102
{ACAD_REACTORS
330
A
102
}
330
A
100
AcDbDictionary
  0
DICTIONARY
  5
F
102
{ACAD_REACTORS
330
A
102
}
330
A
100
AcDbDictionary
  0
DICTIONARY
  5
2F
102
{ACAD_REACTORS
330
A
102
}
330
A
100
AcDbDictionary
  0
DICTIONARY
  5
2D
102
{ACAD_REACTORS
330
A
102
}
330
A
100
AcDbDictionary
  3
STANDARD
350
32
  0
DICTIONARY
  5
2E
102
{ACAD_REACTORS
330
A
102
}
330
A
100
AcDbDictionary
  0
ACDBDICTIONARYWDFLT
  5
9
102
{ACAD_REACTORS
330
A
102
}
330
A
100
AcDbDictionary
281
     1
  3
Normal
350
8
100
AcDbDictionaryWithDefault
340
8
1001
ACAD
1000
TREAT_AS_HARD
1070
     0
  0
DICTIONARY
  5
31
102
{ACAD_REACTORS
330
A
102
}
330
A
100
AcDbDictionary
  3
STANDARD
350
33
  0
DICTIONARY
  5
4CC
102
{ACAD_REACTORS
330
A
102
}
330
A
100
AcDbDictionary
  3
CTABLESTYLE
350
4CD
  3
DIMASSOC
350
4DB
  3
HIDETEXT
350
4DA
  3
PROJECTNAME
350
4DC
  0
DICTIONARY
  5
4F4
102
{ACAD_REACTORS
330
A
102
}
330
A
100
AcDbDictionary
  3
TSTACKALIGN
350
4F5
  3
TSTACKSIZE
350
4F6
  3
HYPERLINKBASE
350
4F7
  3
STYLESHEET
350
4F8
  3
LAYOUTDICT
350
4F9
  3
PLOTSETDICT
350
4FA
  3
PLOTSTYLNAMDICT
350
4FB
  3
LWETCUNION
350
4FC
  3
INSUNITS
350
4FD
  3
CEPSNTYPE
350
4FE
  3
FINGERPRINTGUID
350
4FF
  3
VERSIONGUID
350
500
  3
PSVPSCALE
350
501
  3
DIMSTYLEDATA
350
502
  3
PUCSORTHOREF
350
503
  3
PUCSORTHOVIEW
350
504
  3
PUCSBASE
350
505
  3
PUCSORGTOP
350
506
  3
PUCSORGBOTTOM
350
507
  3
PUCSORGLEFT
350
508
  3
PUCSORGRIGHT
350
509
  3
PUCSORGFRONT
350
50A
  3
PUCSORGBACK
350
50B
  3
UCSORTHOREF
350
50C
  3
UCSORTHOVIEW
350
50D
  3
UCSBASE
350
50E
  3
UCSORGTOP
350
50F
  3
UCSORGBOTTOM
350
510
  3
UCSORGLEFT
350
511
  3
UCSORGRIGHT
350
512
  3
UCSORGFRONT
350
513
  3
UCSORGBACK
350
514
  0
XRECORD
  5
515
102
{ACAD_REACTORS
330
3
102
}
330
3
100
AcDbXrecord
340
2
  0
SORTENTSTABLE
  5
4CB
102
{ACAD_REACTORS
330
3
102
}
330
3
100
AcDbSortentsTable
330
2
  0
XRECORD
  5
516
102
{ACAD_REACTORS
330
12
102
}
330
12
100
AcDbXrecord
340
11
  0
MLINESTYLE
  5
32
102
{ACAD_REACTORS
330
2D
102
}
330
2D
100
AcDbMlineStyle
  2
STANDARD
 70
     0
  3

 62
   256
 51
90.0
 52
90.0
 71
     2
 49
0.5
 62
   256
  6
BYLAYER
 49
-0.5
 62
   256
  6
BYLAYER
  0
ACDBPLACEHOLDER
  5
8
102
{ACAD_REACTORS
330
9
102
}
330
9
100
AcDbPlaceHolder
280
     0
  0
ACAD_PROXY_OBJECT
  5
33
102
{ACAD_REACTORS
330
31
102
}
330
31
100
AcDbProxyObject
 90
      499
 91
      506
 93
     1841
310
4214DD185B99185C9928B81E85EB51B8AE3F2E07A17AD46E2B8FC02B5E8DC0F42B1CFD028000000C1008070000C3001FDFF8000000C1003FBFF000000182007F7FE00000030400FEFFC00000060801FDFF8000000C1003FBFF00000018200000000000000681FA0B0000001820100E000186003FBFF000000182007F7FE000
310
00030400FEFFC00000060801FDFF8000000C1003FBFF000000182007F7FE000000304000AD7A3703D0AC73F4160000003040201C00030C007F7FE00000030400FEFFC00000060801FDFF8000000C1003FBFF000000182007F7FE00000030400FEFFC000000608064
340
19
340
19
340
19
 94
        0
1001
ACAD
1000
AcadProxyRoundTripData
1071
      504
1071
   393239
1070
     0
  0
DICTIONARYVAR
  5
4CD
102
{ACAD_REACTORS
330
4CC
102
}
330
4CC
100
DictionaryVariables
280
     0
  1
STANDARD
  0
DICTIONARYVAR
  5
4DB
102
{ACAD_REACTORS
330
4CC
102
}
330
4CC
100
DictionaryVariables
280
     0
  1
1
  0
DICTIONARYVAR
  5
4DA
102
{ACAD_REACTORS
330
4CC
102
}
330
4CC
100
DictionaryVariables
280
     0
  1
1
  0
DICTIONARYVAR
  5
4DC
102
{ACAD_REACTORS
330
4CC
102
}
330
4CC
100
DictionaryVariables
280
     0
  1

  0
XRECORD
  5
4F5
102
{ACAD_REACTORS
330
4F4
102
}
330
4F4
100
AcDbXrecord
 90
        1
  0
XRECORD
  5
4F6
102
{ACAD_REACTORS
330
4F4
102
}
330
4F4
100
AcDbXrecord
 90
       70
  0
XRECORD
  5
4F7
102
{ACAD_REACTORS
330
4F4
102
}
330
4F4
100
AcDbXrecord
  1

  0
XRECORD
  5
4F8
102
{ACAD_REACTORS
330
4F4
102
}
330
4F4
100
AcDbXrecord
  1

  0
XRECORD
  5
4F9
102
{ACAD_REACTORS
330
4F4
102
}
330
4F4
100
AcDbXrecord
340
F
  0
XRECORD
  5
4FA
102
{ACAD_REACTORS
330
4F4
102
}
330
4F4
100
AcDbXrecord
340
2E
  0
XRECORD
  5
4FB
102
{ACAD_REACTORS
330
4F4
102
}
330
4F4
100
AcDbXrecord
340
9
  0
XRECORD
  5
4FC
102
{ACAD_REACTORS
330
4F4
102
}
330
4F4
100
AcDbXrecord
 90
    10781
  0
XRECORD
  5
4FD
102
{ACAD_REACTORS
330
4F4
102
}
330
4F4
100
AcDbXrecord
 90
        0
  0
XRECORD
  5
4FE
102
{ACAD_REACTORS
330
4F4
102
}
330
4F4
100
AcDbXrecord
 90
        0
  0
XRECORD
  5
4FF
102
{ACAD_REACTORS
330
4F4
102
}
330
4F4
100
AcDbXrecord
  1
{ECE5BFA2-61C6-4FF4-B560-643FBF66A9FC}
  0
XRECORD
  5
500
102
{ACAD_REACTORS
330
4F4
102
}
330
4F4
100
AcDbXrecord
  1
{B5A4832C-F639-41F2-975B-8284C1D9BEB9}
  0
XRECORD
  5
501
102
{ACAD_REACTORS
330
4F4
102
}
330
4F4
100
AcDbXrecord
 40
0.0
  0
XRECORD
  5
502
102
{ACAD_REACTORS
330
4F4
102
}
330
4F4
100
AcDbXrecord
1000
DSTYLE
1002
{
1070
    79
 70
     2
1070
   179
 70
     1
1070
   341
340
25
1070
   342
340
25
1002
}
  0
XRECORD
  5
503
102
{ACAD_REACTORS
330
4F4
102
}
330
4F4
100
AcDbXrecord
340
0
  0
XRECORD
  5
504
102
{ACAD_REACTORS
330
4F4
102
}
330
4F4
100
AcDbXrecord
 70
     0
  0
XRECORD
  5
505
102
{ACAD_REACTORS
330
4F4
102
}
330
4F4
100
AcDbXrecord
340
0
  0
XRECORD
  5
506
102
{ACAD_REACTORS
330
4F4
102
}
330
4F4
100
AcDbXrecord
 10
0.0
 20
0.0
 30
0.0
  0
XRECORD
  5
507
102
{ACAD_REACTORS
330
4F4
102
}
330
4F4
100
AcDbXrecord
 10
0.0
 20
0.0
 30
0.0
  0
XRECORD
  5
508
102
{ACAD_REACTORS
330
4F4
102
}
330
4F4
100
AcDbXrecord
 10
0.0
 20
0.0
 30
0.0
  0
XRECORD
  5
509
102
{ACAD_REACTORS
330
4F4
102
}
330
4F4
100
AcDbXrecord
 10
0.0
 20
0.0
 30
0.0
  0
XRECORD
  5
50A
102
{ACAD_REACTORS
330
4F4
102
}
330
4F4
100
AcDbXrecord
 10
0.0
 20
0.0
 30
0.0
  0
XRECORD
  5
50B
102
{ACAD_REACTORS
330
4F4
102
}
330
4F4
100
AcDbXrecord
 10
0.0
 20
0.0
 30
0.0
  0
XRECORD
  5
50C
102
{ACAD_REACTORS
330
4F4
102
}
330
4F4
100
AcDbXrecord
340
0
  0
XRECORD
  5
50D
102
{ACAD_REACTORS
330
4F4
102
}
330
4F4
100
AcDbXrecord
 70
     0
  0
XRECORD
  5
50E
102
{ACAD_REACTORS
330
4F4
102
}
330
4F4
100
AcDbXrecord
340
0
  0
XRECORD
  5
50F
102
{ACAD_REACTORS
330
4F4
102
}
330
4F4
100
AcDbXrecord
 10
0.0
 20
0.0
 30
0.0
  0
XRECORD
  5
510
102
{ACAD_REACTORS
330
4F4
102
}
330
4F4
100
AcDbXrecord
 10
0.0
 20
0.0
 30
0.0
  0
XRECORD
  5
511
102
{ACAD_REACTORS
330
4F4
102
}
330
4F4
100
AcDbXrecord
 10
0.0
 20
0.0
 30
0.0
  0
XRECORD
  5
512
102
{ACAD_REACTORS
330
4F4
102
}
330
4F4
100
AcDbXrecord
 10
0.0
 20
0.0
 30
0.0
  0
XRECORD
  5
513
102
{ACAD_REACTORS
330
4F4
102
}
330
4F4
100
AcDbXrecord
 10
0.0
 20
0.0
 30
0.0
  0
XRECORD
  5
514
102
{ACAD_REACTORS
330
4F4
102
}
330
4F4
100
AcDbXrecord
 10
0.0
 20
0.0
 30
0.0
  0
ENDSEC
  0
EOF
