  0
SECTION
  2
HEADER
  9
$ACADVER
  1
AC1014
  9
$ACADMAINTVER
 70
     9
  9
$DWGCODEPAGE
  3
ANSI_932
  9
$INSBASE
 10
620.4413551347236
 20
403.9655688874549
 30
0.0
  9
$EXTMIN
 10
577.9413541347237
 20
399.6417619915504
 30
0.0
  9
$EXTMAX
 10
645.9697016334956
 20
641.2655688874549
 30
0.0
  9
$LIMMIN
 10
36.0
 20
25.5
  9
$LIMMAX
 10
1224.0
 20
865.4999999999999
  9
$ORTHOMODE
 70
     1
  9
$REGENMODE
 70
     1
  9
$FILLMODE
 70
     1
  9
$QTEXTMODE
 70
     0
  9
$MIRRTEXT
 70
     0
  9
$DRAGMODE
 70
     2
  9
$LTSCALE
 40
2.0
  9
$OSMODE
 70
   513
  9
$ATTMODE
 70
     1
  9
$TEXTSIZE
 40
0.2
  9
$TRACEWID
 40
0.05
  9
$TEXTSTYLE
  7
STANDARD
  9
$CLAYER
  8
0
  9
$CELTYPE
  6
CONTINUOUS
  9
$CECOLOR
 62
   256
  9
$CELTSCALE
 40
1.0
  9
$DELOBJ
 70
     1
  9
$DISPSILH
 70
     0
  9
$DIMSCALE
 40
3.0
  9
$DIMASZ
 40
2.0
  9
$DIMEXO
 40
2.0
  9
$DIMDLI
 40
7.0
  9
$DIMRND
 40
0.0
  9
$DIMDLE
 40
0.0
  9
$DIMEXE
 40
0.5
  9
$DIMTP
 40
0.0
  9
$DIMTM
 40
0.0
  9
$DIMTXT
 40
2.0
  9
$DIMCEN
 40
0.09
  9
$DIMTSZ
 40
0.0
  9
$DIMTOL
 70
     0
  9
$DIMLIM
 70
     0
  9
$DIMTIH
 70
     0
  9
$DIMTOH
 70
     0
  9
$DIMSE1
 70
     0
  9
$DIMSE2
 70
     0
  9
$DIMTAD
 70
     1
  9
$DIMZIN
 70
     8
  9
$DIMBLK
  1
OPEN
  9
$DIMASO
 70
     1
  9
$DIMSHO
 70
     1
  9
$DIMPOST
  1

  9
$DIMAPOST
  1

  9
$DIMALT
 70
     0
  9
$DIMALTD
 70
     2
  9
$DIMALTF
 40
0.03937
  9
$DIMLFAC
 40
1.0
  9
$DIMTOFL
 70
     1
  9
$DIMTVP
 40
0.0
  9
$DIMTIX
 70
     0
  9
$DIMSOXD
 70
     0
  9
$DIMSAH
 70
     0
  9
$DIMBLK1
  1

  9
$DIMBLK2
  1

  9
$DIMSTYLE
  2
G1
  9
$DIMCLRD
 70
     0
  9
$DIMCLRE
 70
     0
  9
$DIMCLRT
 70
     7
  9
$DIMTFAC
 40
1.0
  9
$DIMGAP
 40
0.8
  9
$DIMJUST
 70
     0
  9
$DIMSD1
 70
     0
  9
$DIMSD2
 70
     0
  9
$DIMTOLJ
 70
     1
  9
$DIMTZIN
 70
     0
  9
$DIMALTZ
 70
     0
  9
$DIMALTTZ
 70
     0
  9
$DIMFIT
 70
     3
  9
$DIMUPT
 70
     0
  9
$DIMUNIT
 70
     2
  9
$DIMDEC
 70
     2
  9
$DIMTDEC
 70
     2
  9
$DIMALTU
 70
     2
  9
$DIMALTTD
 70
     2
  9
$DIMTXSTY
  7
STANDARD
  9
$DIMAUNIT
 70
     0
  9
$LUNITS
 70
     2
  9
$LUPREC
 70
     4
  9
$SKETCHINC
 40
0.1
  9
$FILLETRAD
 40
5.0
  9
$AUNITS
 70
     0
  9
$AUPREC
 70
     0
  9
$MENU
  1
.
  9
$ELEVATION
 40
0.0
  9
$PELEVATION
 40
0.0
  9
$THICKNESS
 40
0.0
  9
$LIMCHECK
 70
     0
  9
$BLIPMODE
 70
     0
  9
$CHAMFERA
 40
0.0
  9
$CHAMFERB
 40
0.0
  9
$CHAMFERC
 40
0.0
  9
$CHAMFERD
 40
0.0
  9
$SKPOLY
 70
     0
  9
$TDCREATE
 40
2452110.000000000
  9
$TDUPDATE
 40
2453944.013557581
  9
$TDINDWG
 40
0.3625582292
  9
$TDUSRTIMER
 40
0.3625582292
  9
$USRTIMER
 70
     1
  9
$ANGBASE
 50
0.0
  9
$ANGDIR
 70
     0
  9
$PDMODE
 70
     3
  9
$PDSIZE
 40
0.0
  9
$PLINEWID
 40
0.0
  9
$COORDS
 70
     1
  9
$SPLFRAME
 70
     0
  9
$SPLINETYPE
 70
     6
  9
$SPLINESEGS
 70
     8
  9
$ATTDIA
 70
     0
  9
$ATTREQ
 70
     1
  9
$HANDLING
 70
 10241
  9
$HANDSEED
  5
192
  9
$SURFTAB1
 70
     6
  9
$SURFTAB2
 70
     6
  9
$SURFTYPE
 70
     6
  9
$SURFU
 70
     6
  9
$SURFV
 70
     6
  9
$UCSNAME
  2

  9
$UCSORG
 10
0.0
 20
0.0
 30
0.0
  9
$UCSXDIR
 10
1.0
 20
0.0
 30
0.0
  9
$UCSYDIR
 10
0.0
 20
1.0
 30
0.0
  9
$PUCSNAME
  2

  9
$PUCSORG
 10
0.0
 20
0.0
 30
0.0
  9
$PUCSXDIR
 10
1.0
 20
0.0
 30
0.0
  9
$PUCSYDIR
 10
0.0
 20
1.0
 30
0.0
  9
$USERI1
 70
     0
  9
$USERI2
 70
     0
  9
$USERI3
 70
     0
  9
$USERI4
 70
     0
  9
$USERI5
 70
     0
  9
$USERR1
 40
0.0
  9
$USERR2
 40
0.0
  9
$USERR3
 40
0.0
  9
$USERR4
 40
0.0
  9
$USERR5
 40
0.0
  9
$WORLDVIEW
 70
     1
  9
$SHADEDGE
 70
     3
  9
$SHADEDIF
 70
    70
  9
$TILEMODE
 70
     1
  9
$MAXACTVP
 70
    48
  9
$PINSBASE
 10
0.0
 20
0.0
 30
0.0
  9
$PLIMCHECK
 70
     0
  9
$PEXTMIN
 10
1.000000000000000E+20
 20
1.000000000000000E+20
 30
1.000000000000000E+20
  9
$PEXTMAX
 10
-1.000000000000000E+20
 20
-1.000000000000000E+20
 30
-1.000000000000000E+20
  9
$PLIMMIN
 10
0.0
 20
0.0
  9
$PLIMMAX
 10
12.0
 20
9.0
  9
$UNITMODE
 70
     0
  9
$VISRETAIN
 70
     1
  9
$PLINEGEN
 70
     0
  9
$PSLTSCALE
 70
     1
  9
$TREEDEPTH
 70
  3020
  9
$PICKSTYLE
 70
     1
  9
$CMLSTYLE
  2
STANDARD
  9
$CMLJUST
 70
     0
  9
$CMLSCALE
 40
1.0
  9
$PROXYGRAPHICS
 70
     1
  9
$MEASUREMENT
 70
     0
  0
ENDSEC
  0
SECTION
  2
CLASSES
  0
CLASS
  1
ACDBDICTIONARYWDFLT
  2
AcDbDictionaryWithDefault
  3
AutoCAD 2000
 90
        0
280
     0
281
     0
  0
CLASS
  1
ACDBPLACEHOLDER
  2
AcDbPlaceHolder
  3
AutoCAD 2000
 90
        0
280
     0
281
     0
  0
CLASS
  1
LAYOUT
  2
AcDbLayout
  3
AutoCAD 2000
 90
        0
280
     0
281
     0
  0
CLASS
  1
DICTIONARYVAR
  2
AcDbDictionaryVar
  3
AutoCAD 2000
 90
        0
280
     0
281
     0
  0
CLASS
  1
TABLESTYLE
  2
AcDbTableStyle
  3
ObjectDBX Classes
 90
     2047
280
     0
281
     0
  0
CLASS
  1
SORTENTSTABLE
  2
AcDbSortentsTable
  3
AutoCAD 2000
 90
        0
280
     0
281
     0
  0
CLASS
  1
ACAD_PROXY_OBJECT_WRAPPER
  2
AcDbProxyObjectWrapper
  3
AutoCAD 2000
 90
        0
280
     0
281
     0
  0
CLASS
  1
LONG_TRANSACTION
  2
AcDbLongTransaction
  3
AutoCAD 2000
 90
        0
280
     0
281
     0
  0
CLASS
  1
LWPOLYLINE
  2
AcDbPolyline
  3
AutoCAD 2000
 90
        0
280
     0
281
     1
  0
CLASS
  1
HATCH
  2
AcDbHatch
  3
AutoCAD 2000
 90
        0
280
     0
281
     1
  0
CLASS
  1
XRECORD
  2
AcDbXrecord
  3
AutoCAD 2000
 90
        0
280
     0
281
     0
  0
CLASS
  1
LONG_TRANSACTION
  2
AcDbLongTransaction
  3
AutoCAD 2000
 90
        0
280
     0
281
     0
  0
CLASS
  1
LWPOLYLINE
  2
AcDbPolyline
  3
AutoCAD 2000
 90
        0
280
     0
281
     1
  0
CLASS
  1
HATCH
  2
AcDbHatch
  3
AutoCAD 2000
 90
        0
280
     0
281
     1
  0
CLASS
  1
XRECORD
  2
AcDbXrecord
  3
AutoCAD 2000
 90
        0
280
     0
281
     0
  0
ENDSEC
  0
SECTION
  2
TABLES
  0
TABLE
  2
VPORT
  5
20
330
0
100
AcDbSymbolTable
 70
     2
  0
VPORT
  5
16E
330
20
100
AcDbSymbolTableRecord
100
AcDbViewportTableRecord
  2
*ACTIVE
 70
     0
 10
0.0
 20
0.0
 11
1.0
 21
1.0
 12
611.9631985458117
 22
520.449648039124
 13
0.0
 23
0.0
 14
1.0
 24
1.0
 15
0.0
 25
0.0
 16
0.0
 26
0.0
 36
1.0
 17
0.0
 27
0.0
 37
0.0
 40
244.6124980924199
 41
1.933867735470941
 42
50.0
 43
0.0
 44
0.0
 50
0.0
 51
0.0
 71
     0
 72
   100
 73
     1
 74
     1
 75
     0
 76
     0
 77
     0
 78
     0
  0
ENDTAB
  0
TABLE
  2
LTYPE
  5
1B
330
0
100
AcDbSymbolTable
 70
     1
  0
LTYPE
  5
1C
330
1B
100
AcDbSymbolTableRecord
100
AcDbLinetypeTableRecord
  2
BYBLOCK
 70
     0
  3

 72
    65
 73
     0
 40
0.0
  0
LTYPE
  5
1D
330
1B
100
AcDbSymbolTableRecord
100
AcDbLinetypeTableRecord
  2
BYLAYER
 70
     0
  3

 72
    65
 73
     0
 40
0.0
  0
LTYPE
  5
C
330
1B
100
AcDbSymbolTableRecord
100
AcDbLinetypeTableRecord
  2
CONTINUOUS
 70
     0
  3
Solid line
 72
    65
 73
     0
 40
0.0
  0
ENDTAB
  0
TABLE
  2
LAYER
  5
17
330
0
100
AcDbSymbolTable
 70
     2
  0
LAYER
  5
7
330
17
100
AcDbSymbolTableRecord
100
AcDbLayerTableRecord
  2
0
 70
     0
 62
     7
  6
CONTINUOUS
  0
LAYER
  5
35
330
17
100
AcDbSymbolTableRecord
100
AcDbLayerTableRecord
  2
OUTLINE
 70
     0
 62
     7
  6
CONTINUOUS
  0
ENDTAB
  0
TABLE
  2
STYLE
  5
18
330
0
100
AcDbSymbolTable
 70
     1
  0
STYLE
  5
19
330
18
100
AcDbSymbolTableRecord
100
AcDbTextStyleTableRecord
  2
STANDARD
 70
     0
 40
0.0
 41
1.0
 50
0.0
 71
     0
 42
0.2
  3
romans.shx
  4
bigfont.shx
  0
ENDTAB
  0
TABLE
  2
VIEW
  5
1E
330
0
100
AcDbSymbolTable
 70
     0
  0
ENDTAB
  0
TABLE
  2
UCS
  5
1F
330
0
100
AcDbSymbolTable
 70
     0
  0
ENDTAB
  0
TABLE
  2
APPID
  5
22
330
0
100
AcDbSymbolTable
 70
     2
  0
APPID
  5
B
330
22
100
AcDbSymbolTableRecord
100
AcDbRegAppTableRecord
  2
ACAD
 70
     0
  0
APPID
  5
10
330
22
100
AcDbSymbolTableRecord
100
AcDbRegAppTableRecord
  2
ACAD_PSEXT
 70
     0
  0
ENDTAB
  0
TABLE
  2
DIMSTYLE
  5
23
330
0
100
AcDbSymbolTable
 70
     1
  0
DIMSTYLE
105
24
330
23
100
AcDbSymbolTableRecord
100
AcDbDimStyleTableRecord
  2
G1
 70
     0
  3

  4

  5
OPEN
  6

  7

 40
3.0
 41
2.0
 42
2.0
 43
7.0
 44
0.5
 45
0.0
 46
0.0
 47
0.0
 48
0.0
140
2.0
141
0.09
142
0.0
143
0.03937
144
1.0
145
0.0
146
1.0
147
0.8
 71
     0
 72
     0
 73
     0
 74
     0
 75
     0
 76
     0
 77
     1
 78
     8
170
     0
171
     2
172
     1
173
     0
174
     0
175
     0
176
     0
177
     0
178
     7
270
     2
271
     2
272
     2
273
     2
274
     2
340
19
275
     0
280
     0
281
     0
282
     0
283
     1
284
     0
285
     0
286
     0
287
     3
288
     0
  0
ENDTAB
  0
TABLE
  2
BLOCK_RECORD
  5
1
330
0
100
AcDbSymbolTable
 70
     1
  0
BLOCK_RECORD
  5
2
102
{ACAD_XDICTIONARY
360
3
102
}
330
1
100
AcDbSymbolTableRecord
100
AcDbBlockTableRecord
  2
*MODEL_SPACE
  0
BLOCK_RECORD
  5
11
102
{ACAD_XDICTIONARY
360
12
102
}
330
1
100
AcDbSymbolTableRecord
100
AcDbBlockTableRecord
  2
*PAPER_SPACE
  0
BLOCK_RECORD
  5
25
330
1
100
AcDbSymbolTableRecord
100
AcDbBlockTableRecord
  2
_OPEN
  0
ENDTAB
  0
ENDSEC
  0
SECTION
  2
BLOCKS
  0
BLOCK
  5
6
330
2
100
AcDbEntity
  8
0
100
AcDbBlockBegin
  2
*MODEL_SPACE
 70
     0
 10
0.0
 20
0.0
 30
0.0
  3
*MODEL_SPACE
  1

  0
ENDBLK
  5
D
330
2
100
AcDbEntity
  8
0
100
AcDbBlockEnd
  0
BLOCK
  5
14
330
11
100
AcDbEntity
 67
     1
  8
0
100
AcDbBlockBegin
  2
*PAPER_SPACE
 70
     0
 10
0.0
 20
0.0
 30
0.0
  3
*PAPER_SPACE
  1

  0
ENDBLK
  5
15
330
11
100
AcDbEntity
 67
     1
  8
0
100
AcDbBlockEnd
  0
BLOCK
  5
26
330
25
100
AcDbEntity
  8
0
100
AcDbBlockBegin
  2
_OPEN
 70
     0
 10
0.0
 20
0.0
 30
0.0
  3
_OPEN
  1

  0
LINE
  5
27
330
25
100
AcDbEntity
  8
0
 62
     0
100
AcDbLine
 10
-0.9659259999999999
 20
0.258819
 30
0.0
 11
0.0
 21
0.0
 31
0.0
  0
LINE
  5
28
330
25
100
AcDbEntity
  8
0
 62
     0
100
AcDbLine
 10
0.0
 20
0.0
 30
0.0
 11
-0.9659259999999999
 21
-0.258819
 31
0.0
  0
LINE
  5
29
330
25
100
AcDbEntity
  8
0
 62
     0
100
AcDbLine
 10
0.0
 20
0.0
 30
0.0
 11
-1.0
 21
0.0
 31
0.0
  0
ENDBLK
  5
2A
330
25
100
AcDbEntity
  8
0
100
AcDbBlockEnd
  0
ENDSEC
  0
SECTION
  2
ENTITIES
  0
LWPOLYLINE
  5
34
330
2
100
AcDbEntity
  8
OUTLINE
100
AcDbPolyline
 90
       36
 70
     1
 43
0.0
 10
628.9413551347237
 20
593.0809628874547
 10
628.8122211347239
 20
593.2480518874549
 10
628.4287421347237
 20
593.4100638874549
 10
627.8025711347237
 20
593.5620758874549
 10
626.9527321347237
 20
593.6994708874549
 10
625.9050491347237
 20
593.8180718874549
 10
624.6913551347237
 20
593.914275887455
 10
623.3485261347238
 20
593.9851608874548
 10
621.9173641347237
 20
594.0285718874548
 10
620.4413551347236
 20
594.0431898874549
 10
618.9653451347237
 20
594.0285718874548
 10
617.5341831347239
 20
593.9851608874548
 10
616.1913551347237
 20
593.914275887455
 10
614.9776601347237
 20
593.8180718874549
 10
613.9299771347237
 20
593.6994708874549
 10
613.0801391347237
 20
593.5620758874549
 10
612.4539671347239
 20
593.4100638874549
 10
612.0704891347237
 20
593.2480518874549
 10
611.9413551347236
 20
593.0809628874547
 10
612.0704891347237
 20
592.9138738874549
 10
612.4539671347239
 20
592.7518618874549
 10
613.0801391347237
 20
592.5998488874548
 10
613.9299771347237
 20
592.4624548874549
 10
614.9776601347237
 20
592.343853887455
 10
616.1913551347237
 20
592.2476488874549
 10
617.5341831347239
 20
592.1767648874549
 10
618.9653451347237
 20
592.133353887455
 10
620.4413551347236
 20
592.1187348874549
 10
621.9173641347237
 20
592.133353887455
 10
623.3485261347238
 20
592.1767648874549
 10
624.6913551347237
 20
592.2476488874549
 10
625.9050491347237
 20
592.343853887455
 10
626.9527321347237
 20
592.4624548874549
 10
627.8025711347237
 20
592.5998488874548
 10
628.4287421347237
 20
592.7518618874549
 10
628.8122211347239
 20
592.9138738874549
  0
LINE
  5
36
330
2
100
AcDbEntity
  8
OUTLINE
100
AcDbLine
 10
610.9419141347237
 20
603.501797887455
 30
0.0
 11
611.9418551347237
 21
593.070521887455
 31
0.0
  0
LINE
  5
37
330
2
100
AcDbEntity
  8
OUTLINE
100
AcDbLine
 10
629.9407951347237
 20
603.501797887455
 30
0.0
 11
628.9408541347237
 21
593.070521887455
 31
0.0
  0
LWPOLYLINE
  5
38
330
2
100
AcDbEntity
  8
OUTLINE
100
AcDbPolyline
 90
       36
 70
     1
 43
0.0
 10
625.4413551347237
 20
593.0809628874547
 10
625.3653931347237
 20
593.1792498874549
 10
625.1398181347239
 20
593.274551887455
 10
624.7714821347239
 20
593.363970887455
 10
624.2715771347238
 20
593.4447908874549
 10
623.6552931347237
 20
593.514555887455
 10
622.9413551347237
 20
593.5711468874549
 10
622.1514551347237
 20
593.612843887455
 10
621.3095961347237
 20
593.6383798874548
 10
620.4413551347236
 20
593.646978887455
 10
619.5731141347237
 20
593.6383798874548
 10
618.7312541347237
 20
593.612843887455
 10
617.9413551347237
 20
593.5711468874549
 10
617.2274171347237
 20
593.514555887455
 10
616.6111321347237
 20
593.4447908874549
 10
616.1112281347238
 20
593.363970887455
 10
615.7428921347237
 20
593.274551887455
 10
615.5173161347237
 20
593.1792498874549
 10
615.4413551347237
 20
593.0809628874547
 10
615.5173161347237
 20
592.982674887455
 10
615.7428921347237
 20
592.8873738874549
 10
616.1112281347238
 20
592.797954887455
 10
616.6111321347237
 20
592.7171348874549
 10
617.2274171347237
 20
592.6473688874549
 10
617.9413551347237
 20
592.590777887455
 10
618.7312541347237
 20
592.549081887455
 10
619.5731141347237
 20
592.5235458874549
 10
620.4413551347236
 20
592.5149468874549
 10
621.3095961347237
 20
592.5235458874549
 10
622.1514551347237
 20
592.549081887455
 10
622.9413551347237
 20
592.590777887455
 10
623.6552931347237
 20
592.6473688874549
 10
624.2715771347238
 20
592.7171348874549
 10
624.7714821347239
 20
592.797954887455
 10
625.1398181347239
 20
592.8873738874549
 10
625.3653931347237
 20
592.982674887455
  0
LINE
  5
39
330
2
100
AcDbEntity
  8
OUTLINE
100
AcDbLine
 10
608.4413551347237
 20
632.5310538874552
 30
0.0
 11
607.123392864849
 21
526.4214853818814
 31
0.0
  0
LINE
  5
3A
330
2
100
AcDbEntity
  8
OUTLINE
100
AcDbLine
 10
632.4413551347237
 20
632.5310538874552
 30
0.0
 11
633.7593174045987
 21
526.421485381874
 31
0.0
  0
LINE
  5
3B
330
2
100
AcDbEntity
  8
OUTLINE
100
AcDbLine
 10
608.4413551347237
 20
632.5310538874552
 30
0.0
 11
608.7746831347239
 21
605.6946808874548
 31
0.0
  0
LINE
  5
3C
330
2
100
AcDbEntity
  8
OUTLINE
100
AcDbLine
 10
632.4413551347237
 20
632.5310538874552
 30
0.0
 11
632.1080261347239
 21
605.6946808874548
 31
0.0
  0
LINE
  5
3D
330
2
100
AcDbEntity
  8
OUTLINE
100
AcDbLine
 10
612.4413551347237
 20
604.2089668874552
 30
0.0
 11
612.4413551347237
 21
604.0934608874549
 31
0.0
  0
LINE
  5
3E
330
2
100
AcDbEntity
  8
OUTLINE
100
AcDbLine
 10
628.4413551347237
 20
604.2089668874552
 30
0.0
 11
628.4413551347237
 21
604.0934608874549
 31
0.0
  0
ARC
  5
3F
330
2
100
AcDbEntity
  8
OUTLINE
100
AcDbCircle
 10
620.4413551347236
 20
628.6551518874549
 30
0.0
 40
12.610417
100
AcDbArc
 50
17.90003200000321
 51
162.0999679999966
  0
LWPOLYLINE
  5
40
330
2
100
AcDbEntity
  8
OUTLINE
100
AcDbPolyline
 90
       19
 70
     0
 43
0.0
 10
628.4413551347237
 20
604.2089668874552
 10
628.3198171347237
 20
604.3662278874549
 10
627.9588961347237
 20
604.5187098874548
 10
627.3695581347237
 20
604.6617798874549
 10
626.5697101347237
 20
604.7910918874548
 10
625.5836551347239
 20
604.9027168874548
 10
624.4413551347236
 20
604.9932618874549
 10
623.1775161347237
 20
605.0599768874548
 10
621.8305401347237
 20
605.100834887455
 10
620.4413551347236
 20
605.1145928874549
 10
619.0521691347237
 20
605.100834887455
 10
617.7051931347237
 20
605.0599768874548
 10
616.4413551347237
 20
604.9932618874549
 10
615.2990541347237
 20
604.9027168874548
 10
614.3129991347238
 20
604.7910918874548
 10
613.5131511347239
 20
604.6617798874549
 10
612.9238141347237
 20
604.5187098874548
 10
612.5628931347237
 20
604.3662278874549
 10
612.4413551347237
 20
604.2089668874552
  0
LWPOLYLINE
  5
41
330
2
100
AcDbEntity
  8
OUTLINE
100
AcDbPolyline
 90
       23
 70
     0
 43
0.0
 10
629.4309801347239
 20
603.8612168874549
 10
629.8278391347237
 20
604.043213887455
 10
629.9394951347237
 20
604.230247887455
 10
629.7625541347239
 20
604.4166338874549
 10
629.3023931347237
 20
604.5967108874549
 10
628.5729941347239
 20
604.765006887455
 10
627.5965201347237
 20
604.9164068874548
 10
626.4026391347236
 20
605.0463118874549
 10
625.0276281347237
 20
605.1507748874549
 10
623.5132651347237
 20
605.2266218874549
 10
621.9055641347237
 20
605.2715478874548
 10
620.2533731347236
 20
605.284186887455
 10
618.6068951347237
 20
605.2641568874548
 10
617.0161551347237
 20
605.2120658874549
 10
615.5294881347239
 20
605.1294948874549
 10
614.1920661347239
 20
605.018954887455
 10
613.0445251347237
 20
604.8838038874548
 10
612.1217331347239
 20
604.7281478874549
 10
611.4517291347238
 20
604.5567178874549
 10
611.0548701347237
 20
604.3747208874549
 10
610.9432151347236
 20
604.1876868874549
 10
611.1201551347237
 20
604.0013008874549
 10
611.4517291347238
 20
603.8612168874549
  0
LWPOLYLINE
  5
42
330
2
100
AcDbEntity
  8
OUTLINE
100
AcDbPolyline
 90
       20
 70
     0
 43
0.0
 10
629.9407951347237
 20
603.501797887455
 10
629.8143781347237
 20
603.6887108874549
 10
629.4031661347237
 20
603.870298887455
 10
628.7196541347237
 20
604.0410448874548
 10
627.7846101347237
 20
604.1957608874549
 10
626.6264451347239
 20
604.329744887455
 10
625.2803491347239
 20
604.4389278874549
 10
623.7872231347237
 20
604.5199908874549
 10
622.1924341347237
 20
604.570470887455
 10
620.5444391347237
 20
604.5888338874549
 10
618.8933131347237
 20
604.5745238874549
 10
617.2892221347239
 20
604.5279728874549
 10
615.7809081347237
 20
604.4505968874549
 10
614.4141991347237
 20
604.3447468874549
 10
613.2306221347237
 20
604.2136388874548
 10
612.2661401347237
 20
604.061256887455
 10
611.5500571347237
 20
603.8922298874549
 10
611.1041321347236
 20
603.7116948874548
 10
610.9419141347237
 20
603.5251368874549
 10
610.9419141347237
 20
603.501797887455
  0
LINE
  5
43
330
2
100
AcDbEntity
  8
OUTLINE
100
AcDbLine
 10
608.9134861347237
 20
605.5694858874549
 30
0.0
 11
610.9463641347237
 21
604.174047887455
 31
0.0
  0
LINE
  5
44
330
2
100
AcDbEntity
  8
OUTLINE
100
AcDbLine
 10
629.9363451347239
 20
604.174047887455
 30
0.0
 11
631.9742081347238
 21
605.5729078874549
 31
0.0
  0
LINE
  5
45
330
2
100
AcDbEntity
  8
OUTLINE
100
AcDbLine
 10
632.1073241347237
 20
605.6947648874548
 30
0.0
 11
631.9599381347237
 21
605.5936968874549
 31
0.0
  0
LINE
  5
46
330
2
100
AcDbEntity
  8
OUTLINE
100
AcDbLine
 10
608.9303251347237
 20
605.594064887455
 30
0.0
 11
608.7753851347237
 21
605.6947648874548
 31
0.0
  0
ARC
  5
47
330
2
100
AcDbEntity
  8
OUTLINE
100
AcDbCircle
 10
620.4413551347236
 20
507.4855968874548
 30
0.0
 40
98.89962400000001
100
AcDbArc
 50
83.22575100000255
 51
96.77424899999744
  0
LINE
  5
48
330
2
100
AcDbEntity
  8
OUTLINE
100
AcDbLine
 10
615.4413551347237
 20
467.9446988874548
 30
0.0
 11
615.4413551347237
 21
455.9864388874548
 31
0.0
  0
LINE
  5
49
330
2
100
AcDbEntity
  8
OUTLINE
100
AcDbLine
 10
614.4413551347237
 20
455.9864388874548
 30
0.0
 11
614.4413551347237
 21
467.9446988874548
 31
0.0
  0
CIRCLE
  5
4A
330
2
100
AcDbEntity
  8
OUTLINE
100
AcDbCircle
 10
614.9413551347237
 20
461.9655688874549
 30
0.0
 40
6.0
  0
LINE
  5
4B
330
2
100
AcDbEntity
  8
OUTLINE
100
AcDbLine
 10
577.9413541347237
 20
459.7143758874548
 30
0.0
 11
577.9607931347237
 21
459.5193908874548
 31
0.0
  0
LINE
  5
4C
330
2
100
AcDbEntity
  8
OUTLINE
100
AcDbLine
 10
577.9607931347237
 20
459.5193908874548
 30
0.0
 11
578.0178831347239
 21
459.3319398874548
 31
0.0
  0
LINE
  5
4D
330
2
100
AcDbEntity
  8
OUTLINE
100
AcDbLine
 10
578.0178831347239
 20
459.3319398874548
 30
0.0
 11
578.1104301347237
 21
459.1592198874548
 31
0.0
  0
LINE
  5
4E
330
2
100
AcDbEntity
  8
OUTLINE
100
AcDbLine
 10
578.1104301347237
 20
459.1592198874548
 30
0.0
 11
578.2348851347237
 21
459.0078638874548
 31
0.0
  0
LINE
  5
4F
330
2
100
AcDbEntity
  8
OUTLINE
100
AcDbLine
 10
578.2348851347237
 20
459.0078638874548
 30
0.0
 11
578.3864631347237
 21
458.8836828874548
 31
0.0
  0
LINE
  5
50
330
2
100
AcDbEntity
  8
OUTLINE
100
AcDbLine
 10
578.3864631347237
 20
458.8836828874548
 30
0.0
 11
578.5593501347237
 21
458.7914458874548
 31
0.0
  0
LINE
  5
51
330
2
100
AcDbEntity
  8
OUTLINE
100
AcDbLine
 10
578.5593501347237
 20
458.7914458874548
 30
0.0
 11
578.7469031347237
 21
458.7346948874548
 31
0.0
  0
LINE
  5
52
330
2
100
AcDbEntity
  8
OUTLINE
100
AcDbLine
 10
578.7469031347237
 20
458.7346948874548
 30
0.0
 11
578.9419261347237
 21
458.7156068874548
 31
0.0
  0
LINE
  5
53
330
2
100
AcDbEntity
  8
OUTLINE
100
AcDbLine
 10
578.9419251347237
 20
458.7156068874548
 30
0.0
 11
597.7170371347239
 21
458.7155688874548
 31
0.0
  0
LINE
  5
54
330
2
100
AcDbEntity
  8
OUTLINE
100
AcDbLine
 10
577.9413541347237
 20
459.7155698874549
 30
0.0
 11
577.9413541347237
 21
464.2055078874546
 31
0.0
  0
CIRCLE
  5
55
330
2
100
AcDbEntity
  8
OUTLINE
100
AcDbCircle
 10
614.9413551347237
 20
461.9655688874549
 30
0.0
 40
8.0
  0
CIRCLE
  5
56
330
2
100
AcDbEntity
  8
OUTLINE
100
AcDbCircle
 10
614.9413551347237
 20
461.9655688874549
 30
0.0
 40
6.349999999999998
  0
CIRCLE
  5
57
330
2
100
AcDbEntity
  8
OUTLINE
100
AcDbCircle
 10
614.9413551347237
 20
461.9655688874549
 30
0.0
 40
6.049999999999998
  0
ARC
  5
58
330
2
100
AcDbEntity
  8
OUTLINE
100
AcDbCircle
 10
597.7272331347237
 20
455.2167458874547
 30
0.0
 40
3.488717999999998
100
AcDbArc
 50
22.77173999999758
 51
90.28118599999901
  0
ARC
  5
59
330
2
100
AcDbEntity
  8
OUTLINE
100
AcDbCircle
 10
597.7273941347237
 20
468.7151228874547
 30
0.0
 40
3.488834999999999
100
AcDbArc
 50
269.6771259999981
 51
337.2099660000003
  0
ARC
  5
5A
330
2
100
AcDbEntity
  8
OUTLINE
100
AcDbCircle
 10
614.9413551347237
 20
461.9655688874549
 30
0.0
 40
14.808057
100
AcDbArc
 50
194.5036090000028
 51
165.4961210000014
  0
ARC
  5
5B
330
2
100
AcDbEntity
  8
OUTLINE
100
AcDbCircle
 10
598.9139151347237
 20
463.9542968874549
 30
0.0
 40
1.740839
100
AcDbArc
 50
133.8414400000019
 51
162.123776000002
  0
ARC
  5
5C
330
2
100
AcDbEntity
  8
OUTLINE
100
AcDbCircle
 10
614.8888441347239
 20
461.9469798874548
 30
0.0
 40
14.944306
100
AcDbArc
 50
198.4484299999993
 51
201.3440139999993
  0
ARC
  5
5D
330
2
100
AcDbEntity
  8
OUTLINE
100
AcDbCircle
 10
614.8969571347237
 20
461.9810628874549
 30
0.0
 40
14.95298
100
AcDbArc
 50
158.6578349999975
 51
161.5500739999968
  0
ARC
  5
5E
330
2
100
AcDbEntity
  8
OUTLINE
100
AcDbCircle
 10
603.4014681347237
 20
465.9104738874548
 30
0.0
 40
2.806213999999998
100
AcDbArc
 50
163.3756779999955
 51
184.8302290000016
  0
ARC
  5
5F
330
2
100
AcDbEntity
  8
OUTLINE
100
AcDbCircle
 10
603.1148951347237
 20
457.9911218874548
 30
0.0
 40
2.523738999999999
100
AcDbArc
 50
173.9520600000009
 51
197.8426160000003
  0
ARC
  5
60
330
2
100
AcDbEntity
  8
OUTLINE
100
AcDbCircle
 10
614.9413551347237
 20
461.9655688874549
 30
0.0
 40
15.0
100
AcDbArc
 50
198.452315
 51
161.5476049999978
  0
LINE
  5
61
330
2
100
AcDbEntity
  8
OUTLINE
100
AcDbLine
 10
597.2571201347237
 20
464.4886668874549
 30
0.0
 11
597.7605771347237
 21
464.4897498874549
 31
0.0
  0
LINE
  5
62
330
2
100
AcDbEntity
  8
OUTLINE
100
AcDbLine
 10
597.7605771347237
 20
464.4897498874549
 30
0.0
 11
598.2563311347237
 21
464.5605308874548
 31
0.0
  0
LINE
  5
63
330
2
100
AcDbEntity
  8
OUTLINE
100
AcDbLine
 10
598.2563311347237
 20
464.5605308874548
 30
0.0
 11
598.7340141347239
 21
464.6995288874546
 31
0.0
  0
LINE
  5
64
330
2
100
AcDbEntity
  8
OUTLINE
100
AcDbLine
 10
598.7340141347239
 20
464.6995288874546
 30
0.0
 11
599.1836281347238
 21
464.9038358874547
 31
0.0
  0
LINE
  5
65
330
2
100
AcDbEntity
  8
OUTLINE
100
AcDbLine
 10
599.1836281347238
 20
464.9038358874547
 30
0.0
 11
599.5957711347236
 21
465.1691778874549
 31
0.0
  0
LINE
  5
66
330
2
100
AcDbEntity
  8
OUTLINE
100
AcDbLine
 10
599.5957711347236
 20
465.1691778874549
 30
0.0
 11
599.9618161347237
 21
465.4900038874548
 31
0.0
  0
LINE
  5
67
330
2
100
AcDbEntity
  8
OUTLINE
100
AcDbLine
 10
599.9618161347237
 20
465.4900038874548
 30
0.0
 11
600.2741061347237
 21
465.8596008874548
 31
0.0
  0
LINE
  5
68
330
2
100
AcDbEntity
  8
OUTLINE
100
AcDbLine
 10
600.2741061347237
 20
465.8596008874548
 30
0.0
 11
600.5261081347237
 21
466.2702358874549
 31
0.0
  0
LINE
  5
69
330
2
100
AcDbEntity
  8
OUTLINE
100
AcDbLine
 10
600.5261081347237
 20
466.2702358874549
 30
0.0
 11
600.7125511347237
 21
466.7133178874548
 31
0.0
  0
LINE
  5
6A
330
2
100
AcDbEntity
  8
OUTLINE
100
AcDbLine
 10
597.2569491347237
 20
459.4422398874549
 30
0.0
 11
597.760429134724
 21
459.4412008874549
 31
0.0
  0
LINE
  5
6B
330
2
100
AcDbEntity
  8
OUTLINE
100
AcDbLine
 10
597.760429134724
 20
459.4412008874549
 30
0.0
 11
598.2562121347237
 21
459.3704608874548
 31
0.0
  0
LINE
  5
6C
330
2
100
AcDbEntity
  8
OUTLINE
100
AcDbLine
 10
598.2562121347237
 20
459.3704608874548
 30
0.0
 11
598.7339201347239
 21
459.2314988874546
 31
0.0
  0
LINE
  5
6D
330
2
100
AcDbEntity
  8
OUTLINE
100
AcDbLine
 10
598.7339201347239
 20
459.2314988874546
 30
0.0
 11
599.1835611347237
 21
459.0272238874548
 31
0.0
  0
LINE
  5
6E
330
2
100
AcDbEntity
  8
OUTLINE
100
AcDbLine
 10
599.1835611347237
 20
459.0272238874548
 30
0.0
 11
599.5957261347236
 21
458.7619098874547
 31
0.0
  0
LINE
  5
6F
330
2
100
AcDbEntity
  8
OUTLINE
100
AcDbLine
 10
599.5957261347236
 20
458.7619098874547
 30
0.0
 11
599.9617901347237
 21
458.4411078874548
 31
0.0
  0
LINE
  5
70
330
2
100
AcDbEntity
  8
OUTLINE
100
AcDbLine
 10
599.9617901347237
 20
458.4411078874548
 30
0.0
 11
600.2740931347237
 21
458.0715298874548
 31
0.0
  0
LINE
  5
71
330
2
100
AcDbEntity
  8
OUTLINE
100
AcDbLine
 10
600.2740931347237
 20
458.0715298874548
 30
0.0
 11
600.5261031347237
 21
457.6609098874548
 31
0.0
  0
LINE
  5
72
330
2
100
AcDbEntity
  8
OUTLINE
100
AcDbLine
 10
600.5261031347237
 20
457.6609098874548
 30
0.0
 11
600.7125431347239
 21
457.2178398874548
 31
0.0
  0
LINE
  5
73
330
2
100
AcDbEntity
  8
OUTLINE
100
AcDbLine
 10
598.3282161347239
 20
460.5106918874549
 30
0.0
 11
599.4139981347237
 21
460.9571078874548
 31
0.0
  0
LINE
  5
74
330
2
100
AcDbEntity
  8
OUTLINE
100
AcDbLine
 10
599.4139981347237
 20
460.9571078874548
 30
0.0
 11
600.5731651347237
 21
461.4300968874548
 31
0.0
  0
LINE
  5
75
330
2
100
AcDbEntity
  8
OUTLINE
100
AcDbLine
 10
600.5731651347237
 20
461.4300968874548
 30
0.0
 11
600.8504791347237
 21
461.5628058874547
 31
0.0
  0
LINE
  5
76
330
2
100
AcDbEntity
  8
OUTLINE
100
AcDbLine
 10
600.8504791347237
 20
461.5628058874547
 30
0.0
 11
601.1162901347237
 21
461.7234068874548
 31
0.0
  0
LINE
  5
77
330
2
100
AcDbEntity
  8
OUTLINE
100
AcDbLine
 10
601.1162901347237
 20
461.7234068874548
 30
0.0
 11
601.1954501347237
 21
461.7928848874548
 31
0.0
  0
LINE
  5
78
330
2
100
AcDbEntity
  8
OUTLINE
100
AcDbLine
 10
601.1954501347237
 20
461.7928848874548
 30
0.0
 11
601.2575081347239
 21
461.8790148874548
 31
0.0
  0
LINE
  5
79
330
2
100
AcDbEntity
  8
OUTLINE
100
AcDbLine
 10
601.2575081347239
 20
461.8790148874548
 30
0.0
 11
601.2765881347237
 21
461.9417508874549
 31
0.0
  0
LINE
  5
7A
330
2
100
AcDbEntity
  8
OUTLINE
100
AcDbLine
 10
601.2765881347237
 20
461.9417508874549
 30
0.0
 11
601.2731961347237
 21
462.0075618874547
 31
0.0
  0
LINE
  5
7B
330
2
100
AcDbEntity
  8
OUTLINE
100
AcDbLine
 10
601.2731961347237
 20
462.0075618874547
 30
0.0
 11
601.2505121347238
 21
462.0646048874548
 31
0.0
  0
LINE
  5
7C
330
2
100
AcDbEntity
  8
OUTLINE
100
AcDbLine
 10
601.2505121347238
 20
462.0646048874548
 30
0.0
 11
601.1791891347237
 21
462.1531908874549
 31
0.0
  0
LINE
  5
7D
330
2
100
AcDbEntity
  8
OUTLINE
100
AcDbLine
 10
601.1791891347237
 20
462.1531908874549
 30
0.0
 11
600.9984061347238
 21
462.2862078874548
 31
0.0
  0
LINE
  5
7E
330
2
100
AcDbEntity
  8
OUTLINE
100
AcDbLine
 10
600.9984061347238
 20
462.2862078874548
 30
0.0
 11
600.7967541347237
 21
462.3970868874549
 31
0.0
  0
LINE
  5
7F
330
2
100
AcDbEntity
  8
OUTLINE
100
AcDbLine
 10
600.7967541347237
 20
462.3970868874549
 30
0.0
 11
599.9819731347239
 21
462.7469988874548
 31
0.0
  0
LINE
  5
80
330
2
100
AcDbEntity
  8
OUTLINE
100
AcDbLine
 10
599.9819731347239
 20
462.7469988874548
 30
0.0
 11
599.1645731347237
 21
463.0743168874547
 31
0.0
  0
LINE
  5
81
330
2
100
AcDbEntity
  8
OUTLINE
100
AcDbLine
 10
599.1645731347237
 20
463.0743168874547
 30
0.0
 11
598.3282771347237
 21
463.4202578874549
 31
0.0
  0
LINE
  5
82
330
2
100
AcDbEntity
  8
OUTLINE
100
AcDbLine
 10
597.2569491347237
 20
459.4422398874549
 30
0.0
 11
597.2441841347239
 21
459.6658718874548
 31
0.0
  0
LINE
  5
83
330
2
100
AcDbEntity
  8
OUTLINE
100
AcDbLine
 10
597.2441841347239
 20
459.6658718874548
 30
0.0
 11
597.3138471347239
 21
459.8076128874549
 31
0.0
  0
LINE
  5
84
330
2
100
AcDbEntity
  8
OUTLINE
100
AcDbLine
 10
597.3138471347239
 20
459.8076128874549
 30
0.0
 11
597.4396331347239
 21
459.9591638874549
 31
0.0
  0
LINE
  5
85
330
2
100
AcDbEntity
  8
OUTLINE
100
AcDbLine
 10
597.4396331347239
 20
459.9591638874549
 30
0.0
 11
597.5846141347239
 21
460.0876258874547
 31
0.0
  0
LINE
  5
86
330
2
100
AcDbEntity
  8
OUTLINE
100
AcDbLine
 10
597.5846141347239
 20
460.0876258874547
 30
0.0
 11
597.8187121347238
 21
460.2506388874549
 31
0.0
  0
LINE
  5
87
330
2
100
AcDbEntity
  8
OUTLINE
100
AcDbLine
 10
597.8187121347238
 20
460.2506388874549
 30
0.0
 11
598.1000961347239
 21
460.4063328874548
 31
0.0
  0
LINE
  5
88
330
2
100
AcDbEntity
  8
OUTLINE
100
AcDbLine
 10
598.1000961347239
 20
460.4063328874548
 30
0.0
 11
598.3282161347239
 21
460.5106918874549
 31
0.0
  0
LINE
  5
89
330
2
100
AcDbEntity
  8
OUTLINE
100
AcDbLine
 10
597.7167341347239
 20
458.7155688874548
 30
0.0
 11
597.6965761347237
 21
458.7216888874548
 31
0.0
  0
LINE
  5
8A
330
2
100
AcDbEntity
  8
OUTLINE
100
AcDbLine
 10
597.6965761347237
 20
458.7216888874548
 30
0.0
 11
597.6318341347237
 21
458.7820248874548
 31
0.0
  0
LINE
  5
8B
330
2
100
AcDbEntity
  8
OUTLINE
100
AcDbLine
 10
597.6318341347237
 20
458.7820248874548
 30
0.0
 11
597.5398771347238
 21
458.9134358874548
 31
0.0
  0
LINE
  5
8C
330
2
100
AcDbEntity
  8
OUTLINE
100
AcDbLine
 10
597.5398771347238
 20
458.9134358874548
 30
0.0
 11
597.4163021347237
 21
459.1283298874548
 31
0.0
  0
LINE
  5
8D
330
2
100
AcDbEntity
  8
OUTLINE
100
AcDbLine
 10
597.4163021347237
 20
459.1283298874548
 30
0.0
 11
597.2569491347237
 21
459.4422398874549
 31
0.0
  0
LINE
  5
8E
330
2
100
AcDbEntity
  8
OUTLINE
100
AcDbLine
 10
600.6052031347238
 20
458.2570248874549
 30
0.0
 11
600.3894111347237
 21
458.6183438874549
 31
0.0
  0
LINE
  5
8F
330
2
100
AcDbEntity
  8
OUTLINE
100
AcDbLine
 10
600.3894111347237
 20
458.6183438874549
 30
0.0
 11
600.1460061347237
 21
458.9663668874548
 31
0.0
  0
LINE
  5
90
330
2
100
AcDbEntity
  8
OUTLINE
100
AcDbLine
 10
600.1460061347237
 20
458.9663668874548
 30
0.0
 11
599.8785791347237
 21
459.2959588874548
 31
0.0
  0
LINE
  5
91
330
2
100
AcDbEntity
  8
OUTLINE
100
AcDbLine
 10
599.8785791347237
 20
459.2959588874548
 30
0.0
 11
599.5910761347237
 21
459.6022598874549
 31
0.0
  0
LINE
  5
92
330
2
100
AcDbEntity
  8
OUTLINE
100
AcDbLine
 10
599.5910761347237
 20
459.6022598874549
 30
0.0
 11
599.2877371347239
 21
459.8807508874548
 31
0.0
  0
LINE
  5
93
330
2
100
AcDbEntity
  8
OUTLINE
100
AcDbLine
 10
599.2877371347239
 20
459.8807508874548
 30
0.0
 11
598.9730361347239
 21
460.1273238874548
 31
0.0
  0
LINE
  5
94
330
2
100
AcDbEntity
  8
OUTLINE
100
AcDbLine
 10
598.9730361347239
 20
460.1273238874548
 30
0.0
 11
598.6516141347237
 21
460.3383418874548
 31
0.0
  0
LINE
  5
95
330
2
100
AcDbEntity
  8
OUTLINE
100
AcDbLine
 10
598.6516141347237
 20
460.3383418874548
 30
0.0
 11
598.3282161347239
 21
460.5106918874549
 31
0.0
  0
LINE
  5
96
330
2
100
AcDbEntity
  8
OUTLINE
100
AcDbLine
 10
600.6052201347237
 20
465.6741808874548
 30
0.0
 11
600.3894451347236
 21
465.3128108874548
 31
0.0
  0
LINE
  5
97
330
2
100
AcDbEntity
  8
OUTLINE
100
AcDbLine
 10
600.3894451347236
 20
465.3128108874548
 30
0.0
 11
600.1460531347237
 21
464.9647398874549
 31
0.0
  0
LINE
  5
98
330
2
100
AcDbEntity
  8
OUTLINE
100
AcDbLine
 10
600.1460531347237
 20
464.9647398874549
 30
0.0
 11
599.8786351347237
 21
464.6351038874549
 31
0.0
  0
LINE
  5
99
330
2
100
AcDbEntity
  8
OUTLINE
100
AcDbLine
 10
599.8786351347237
 20
464.6351038874549
 30
0.0
 11
599.5911371347239
 21
464.3287648874548
 31
0.0
  0
LINE
  5
9A
330
2
100
AcDbEntity
  8
OUTLINE
100
AcDbLine
 10
599.5911371347239
 20
464.3287648874548
 30
0.0
 11
599.2878001347237
 21
464.0502418874548
 31
0.0
  0
LINE
  5
9B
330
2
100
AcDbEntity
  8
OUTLINE
100
AcDbLine
 10
599.2878001347237
 20
464.0502418874548
 30
0.0
 11
598.9730991347236
 21
463.8036458874548
 31
0.0
  0
LINE
  5
9C
330
2
100
AcDbEntity
  8
OUTLINE
100
AcDbLine
 10
598.9730991347236
 20
463.8036458874548
 30
0.0
 11
598.6516771347237
 21
463.5926128874548
 31
0.0
  0
LINE
  5
9D
330
2
100
AcDbEntity
  8
OUTLINE
100
AcDbLine
 10
598.6516771347237
 20
463.5926128874548
 30
0.0
 11
598.3282771347237
 21
463.4202578874549
 31
0.0
  0
LINE
  5
9E
330
2
100
AcDbEntity
  8
OUTLINE
100
AcDbLine
 10
598.3282771347237
 20
463.4202578874549
 30
0.0
 11
597.8306921347238
 21
463.6728998874548
 31
0.0
  0
LINE
  5
9F
330
2
100
AcDbEntity
  8
OUTLINE
100
AcDbLine
 10
597.8306921347238
 20
463.6728998874548
 30
0.0
 11
597.5912491347237
 21
463.8385428874548
 31
0.0
  0
LINE
  5
A0
330
2
100
AcDbEntity
  8
OUTLINE
100
AcDbLine
 10
597.5912491347237
 20
463.8385428874548
 30
0.0
 11
597.4087581347236
 21
464.0042618874548
 31
0.0
  0
LINE
  5
A1
330
2
100
AcDbEntity
  8
OUTLINE
100
AcDbLine
 10
597.4087581347236
 20
464.0042618874548
 30
0.0
 11
597.3252201347237
 21
464.1068968874548
 31
0.0
  0
LINE
  5
A2
330
2
100
AcDbEntity
  8
OUTLINE
100
AcDbLine
 10
597.3252201347237
 20
464.1068968874548
 30
0.0
 11
597.2448621347236
 21
464.2643618874549
 31
0.0
  0
LINE
  5
A3
330
2
100
AcDbEntity
  8
OUTLINE
100
AcDbLine
 10
597.2448621347236
 20
464.2643618874549
 30
0.0
 11
597.2315371347239
 21
464.4060348874549
 31
0.0
  0
LINE
  5
A4
330
2
100
AcDbEntity
  8
OUTLINE
100
AcDbLine
 10
597.2315371347239
 20
464.4060348874549
 30
0.0
 11
597.2571201347237
 21
464.4886668874549
 31
0.0
  0
LINE
  5
A5
330
2
100
AcDbEntity
  8
OUTLINE
100
AcDbLine
 10
578.9412521347237
 20
465.2031518874548
 30
0.0
 11
578.9415611347237
 21
465.2048098874549
 31
0.0
  0
LINE
  5
A6
330
2
100
AcDbEntity
  8
OUTLINE
100
AcDbLine
 10
577.9413541347237
 20
464.2164838874548
 30
0.0
 11
577.9606811347236
 21
464.4111958874548
 31
0.0
  0
LINE
  5
A7
330
2
100
AcDbEntity
  8
OUTLINE
100
AcDbLine
 10
577.9606811347236
 20
464.4111958874548
 30
0.0
 11
578.0175511347237
 21
464.5984178874548
 31
0.0
  0
LINE
  5
A8
330
2
100
AcDbEntity
  8
OUTLINE
100
AcDbLine
 10
578.0175511347237
 20
464.5984178874548
 30
0.0
 11
578.1097931347239
 21
464.7709808874548
 31
0.0
  0
LINE
  5
A9
330
2
100
AcDbEntity
  8
OUTLINE
100
AcDbLine
 10
578.1097931347239
 20
464.7709808874548
 30
0.0
 11
578.2338681347237
 21
464.9222778874547
 31
0.0
  0
LINE
  5
AA
330
2
100
AcDbEntity
  8
OUTLINE
100
AcDbLine
 10
578.2338681347237
 20
464.9222778874547
 30
0.0
 11
578.3850321347239
 21
465.0465178874549
 31
0.0
  0
LINE
  5
AB
330
2
100
AcDbEntity
  8
OUTLINE
100
AcDbLine
 10
578.3850321347239
 20
465.0465178874549
 30
0.0
 11
578.5574991347236
 21
465.1389428874548
 31
0.0
  0
LINE
  5
AC
330
2
100
AcDbEntity
  8
OUTLINE
100
AcDbLine
 10
578.5574991347236
 20
465.1389428874548
 30
0.0
 11
578.7446571347238
 21
465.1960148874549
 31
0.0
  0
LINE
  5
AD
330
2
100
AcDbEntity
  8
OUTLINE
100
AcDbLine
 10
578.7446571347238
 20
465.1960148874549
 30
0.0
 11
578.9393521347237
 21
465.2155478874548
 31
0.0
  0
LINE
  5
AE
330
2
100
AcDbEntity
  8
OUTLINE
100
AcDbLine
 10
600.6052201347237
 20
465.6741808874548
 30
0.0
 11
601.2991511347237
 21
465.0452068874548
 31
0.0
  0
LINE
  5
AF
330
2
100
AcDbEntity
  8
OUTLINE
100
AcDbLine
 10
601.2991511347237
 20
465.0452068874548
 30
0.0
 11
601.9759201347238
 21
464.2765378874549
 31
0.0
  0
LINE
  5
B0
330
2
100
AcDbEntity
  8
OUTLINE
100
AcDbLine
 10
601.9759201347238
 20
464.2765378874549
 30
0.0
 11
602.2569481347239
 21
463.8736478874546
 31
0.0
  0
LINE
  5
B1
330
2
100
AcDbEntity
  8
OUTLINE
100
AcDbLine
 10
602.2569481347239
 20
463.8736478874546
 30
0.0
 11
602.5060401347237
 21
463.4312378874549
 31
0.0
  0
LINE
  5
B2
330
2
100
AcDbEntity
  8
OUTLINE
100
AcDbLine
 10
602.5060401347237
 20
463.4312378874549
 30
0.0
 11
602.6831761347238
 21
463.0136118874548
 31
0.0
  0
LINE
  5
B3
330
2
100
AcDbEntity
  8
OUTLINE
100
AcDbLine
 10
602.6831761347238
 20
463.0136118874548
 30
0.0
 11
602.8094091347237
 21
462.5626578874548
 31
0.0
  0
LINE
  5
B4
330
2
100
AcDbEntity
  8
OUTLINE
100
AcDbLine
 10
602.8094091347237
 20
462.5626578874548
 30
0.0
 11
602.8668911347239
 21
461.8249518874548
 31
0.0
  0
LINE
  5
B5
330
2
100
AcDbEntity
  8
OUTLINE
100
AcDbLine
 10
602.8668911347239
 20
461.8249518874548
 30
0.0
 11
602.7440101347239
 21
461.1040088874548
 31
0.0
  0
LINE
  5
B6
330
2
100
AcDbEntity
  8
OUTLINE
100
AcDbLine
 10
602.7440101347239
 20
461.1040088874548
 30
0.0
 11
602.5637751347239
 21
460.6214278874548
 31
0.0
  0
LINE
  5
B7
330
2
100
AcDbEntity
  8
OUTLINE
100
AcDbLine
 10
602.5637751347239
 20
460.6214278874548
 30
0.0
 11
602.3219791347237
 21
460.1630178874549
 31
0.0
  0
LINE
  5
B8
330
2
100
AcDbEntity
  8
OUTLINE
100
AcDbLine
 10
602.3219791347237
 20
460.1630178874549
 30
0.0
 11
601.8229201347239
 21
459.4612698874548
 31
0.0
  0
LINE
  5
B9
330
2
100
AcDbEntity
  8
OUTLINE
100
AcDbLine
 10
601.8229201347239
 20
459.4612698874548
 30
0.0
 11
601.2511071347237
 21
458.8387798874548
 31
0.0
  0
LINE
  5
BA
330
2
100
AcDbEntity
  8
OUTLINE
100
AcDbLine
 10
601.2511071347237
 20
458.8387798874548
 30
0.0
 11
600.6052031347238
 21
458.2570248874549
 31
0.0
  0
LINE
  5
BB
330
2
100
AcDbEntity
  8
OUTLINE
100
AcDbLine
 10
578.9419251347237
 20
465.2155308874548
 30
0.0
 11
597.7170371347239
 21
465.2155688874548
 31
0.0
  0
LINE
  5
BC
330
2
100
AcDbEntity
  8
OUTLINE
100
AcDbLine
 10
627.4028491347237
 20
450.9561338874548
 30
0.0
 11
626.2155131347237
 21
449.5668018874548
 31
0.0
  0
LINE
  5
BD
330
2
100
AcDbEntity
  8
OUTLINE
100
AcDbLine
 10
626.2155131347237
 20
449.5668018874548
 30
0.0
 11
624.6042631347237
 21
448.0972268874547
 31
0.0
  0
LINE
  5
BE
330
2
100
AcDbEntity
  8
OUTLINE
100
AcDbLine
 10
624.6042631347237
 20
448.0972268874547
 30
0.0
 11
622.7424991347239
 21
446.8290748874549
 31
0.0
  0
LINE
  5
BF
330
2
100
AcDbEntity
  8
OUTLINE
100
AcDbLine
 10
622.7424991347239
 20
446.8290748874549
 30
0.0
 11
620.8162821347237
 21
445.8900408874549
 31
0.0
  0
LINE
  5
C0
330
2
100
AcDbEntity
  8
OUTLINE
100
AcDbLine
 10
620.8162821347237
 20
445.8900408874549
 30
0.0
 11
618.7057451347238
 21
445.2211008874549
 31
0.0
  0
LINE
  5
C1
330
2
100
AcDbEntity
  8
OUTLINE
100
AcDbLine
 10
618.7057451347238
 20
445.2211008874549
 30
0.0
 11
616.7227101347236
 21
444.8964978874548
 31
0.0
  0
LINE
  5
C2
330
2
100
AcDbEntity
  8
OUTLINE
100
AcDbLine
 10
616.7227101347236
 20
444.8964978874548
 30
0.0
 11
614.6867611347237
 21
444.8511318874547
 31
0.0
  0
LINE
  5
C3
330
2
100
AcDbEntity
  8
OUTLINE
100
AcDbLine
 10
614.6867611347237
 20
444.8511318874547
 30
0.0
 11
613.9035481347238
 21
444.9104228874548
 31
0.0
  0
LINE
  5
C4
330
2
100
AcDbEntity
  8
OUTLINE
100
AcDbLine
 10
613.9035481347238
 20
444.9104228874548
 30
0.0
 11
611.6738851347236
 21
445.3185508874549
 31
0.0
  0
LINE
  5
C5
330
2
100
AcDbEntity
  8
OUTLINE
100
AcDbLine
 10
611.6738851347236
 20
445.3185508874549
 30
0.0
 11
609.5541881347237
 21
446.0576968874549
 31
0.0
  0
LINE
  5
C6
330
2
100
AcDbEntity
  8
OUTLINE
100
AcDbLine
 10
609.5541881347237
 20
446.0576968874549
 30
0.0
 11
608.3771201347238
 21
446.6340438874548
 31
0.0
  0
LINE
  5
C7
330
2
100
AcDbEntity
  8
OUTLINE
100
AcDbLine
 10
608.3771201347238
 20
446.6340438874548
 30
0.0
 11
607.2731961347239
 21
447.2978458874548
 31
0.0
  0
LINE
  5
C8
330
2
100
AcDbEntity
  8
OUTLINE
100
AcDbLine
 10
607.2731961347239
 20
447.2978458874548
 30
0.0
 11
606.2322021347239
 21
448.0492378874548
 31
0.0
  0
LINE
  5
C9
330
2
100
AcDbEntity
  8
OUTLINE
100
AcDbLine
 10
606.2322021347239
 20
448.0492378874548
 30
0.0
 11
605.2712541347237
 21
448.8699558874547
 31
0.0
  0
LINE
  5
CA
330
2
100
AcDbEntity
  8
OUTLINE
100
AcDbLine
 10
605.2712541347237
 20
448.8699558874547
 30
0.0
 11
604.0051061347237
 21
450.1837578874548
 31
0.0
  0
LINE
  5
CB
330
2
100
AcDbEntity
  8
OUTLINE
100
AcDbLine
 10
604.0051061347237
 20
450.1837578874548
 30
0.0
 11
602.9065721347238
 21
451.6121828874548
 31
0.0
  0
LINE
  5
CC
330
2
100
AcDbEntity
  8
OUTLINE
100
AcDbLine
 10
602.9065721347238
 20
451.6121828874548
 30
0.0
 11
601.9597371347237
 21
453.1664708874548
 31
0.0
  0
LINE
  5
CD
330
2
100
AcDbEntity
  8
OUTLINE
100
AcDbLine
 10
601.9597371347237
 20
453.1664708874548
 30
0.0
 11
601.1813711347237
 21
454.8174188874549
 31
0.0
  0
LINE
  5
CE
330
2
100
AcDbEntity
  8
OUTLINE
100
AcDbLine
 10
601.1813711347237
 20
454.8174188874549
 30
0.0
 11
600.3885421347239
 21
457.2463978874548
 31
0.0
  0
LINE
  5
CF
330
2
100
AcDbEntity
  8
OUTLINE
100
AcDbLine
 10
600.3885421347239
 20
457.2463978874548
 30
0.0
 11
600.3262751347237
 21
457.5440058874549
 31
0.0
  0
LINE
  5
D0
330
2
100
AcDbEntity
  8
OUTLINE
100
AcDbLine
 10
600.5585821347239
 20
466.6764138874547
 30
0.0
 11
600.9027101347237
 21
467.7538998874548
 31
0.0
  0
LINE
  5
D1
330
2
100
AcDbEntity
  8
OUTLINE
100
AcDbLine
 10
600.9027101347237
 20
467.7538998874548
 30
0.0
 11
601.1612691347237
 21
468.4394578874548
 31
0.0
  0
LINE
  5
D2
330
2
100
AcDbEntity
  8
OUTLINE
100
AcDbLine
 10
601.1612691347237
 20
468.4394578874548
 30
0.0
 11
601.7711921347236
 21
469.7960998874548
 31
0.0
  0
LINE
  5
D3
330
2
100
AcDbEntity
  8
OUTLINE
100
AcDbLine
 10
601.7711921347236
 20
469.7960998874548
 30
0.0
 11
602.4810801347237
 21
471.0778608874546
 31
0.0
  0
LINE
  5
D4
330
2
100
AcDbEntity
  8
OUTLINE
100
AcDbLine
 10
602.4810801347237
 20
471.0778608874546
 30
0.0
 11
603.3030111347239
 21
472.3047778874549
 31
0.0
  0
LINE
  5
D5
330
2
100
AcDbEntity
  8
OUTLINE
100
AcDbLine
 10
603.3030111347239
 20
472.3047778874549
 30
0.0
 11
604.2354891347237
 21
473.4646318874548
 31
0.0
  0
LINE
  5
D6
330
2
100
AcDbEntity
  8
OUTLINE
100
AcDbLine
 10
604.2354891347237
 20
473.4646318874548
 30
0.0
 11
605.2037871347237
 21
474.4757498874547
 31
0.0
  0
LINE
  5
D7
330
2
100
AcDbEntity
  8
OUTLINE
100
AcDbLine
 10
605.2037871347237
 20
474.4757498874547
 30
0.0
 11
606.2776571347239
 21
475.4177938874549
 31
0.0
  0
LINE
  5
D8
330
2
100
AcDbEntity
  8
OUTLINE
100
AcDbLine
 10
606.2776571347239
 20
475.4177938874549
 30
0.0
 11
607.4787151347237
 21
476.2902718874548
 31
0.0
  0
LINE
  5
D9
330
2
100
AcDbEntity
  8
OUTLINE
100
AcDbLine
 10
607.4787151347237
 20
476.2902718874548
 30
0.0
 11
608.7997271347237
 21
477.0653038874549
 31
0.0
  0
LINE
  5
DA
330
2
100
AcDbEntity
  8
OUTLINE
100
AcDbLine
 10
608.7997271347237
 20
477.0653038874549
 30
0.0
 11
610.6497601347236
 21
477.8742948874548
 31
0.0
  0
LINE
  5
DB
330
2
100
AcDbEntity
  8
OUTLINE
100
AcDbLine
 10
610.6497601347236
 20
477.8742948874548
 30
0.0
 11
612.7097951347238
 21
478.4437508874548
 31
0.0
  0
LINE
  5
DC
330
2
100
AcDbEntity
  8
OUTLINE
100
AcDbLine
 10
612.7097951347238
 20
478.4437508874548
 30
0.0
 11
614.7703381347237
 21
478.6960418874548
 31
0.0
  0
LINE
  5
DD
330
2
100
AcDbEntity
  8
OUTLINE
100
AcDbLine
 10
614.7703381347237
 20
478.6960418874548
 30
0.0
 11
616.9665561347239
 21
478.6302458874549
 31
0.0
  0
LINE
  5
DE
330
2
100
AcDbEntity
  8
OUTLINE
100
AcDbLine
 10
616.9665561347239
 20
478.6302458874549
 30
0.0
 11
618.1573361347237
 21
478.4493608874548
 31
0.0
  0
LINE
  5
DF
330
2
100
AcDbEntity
  8
OUTLINE
100
AcDbLine
 10
618.1573361347237
 20
478.4493608874548
 30
0.0
 11
619.3484951347237
 21
478.1624908874548
 31
0.0
  0
LINE
  5
E0
330
2
100
AcDbEntity
  8
OUTLINE
100
AcDbLine
 10
619.3484951347237
 20
478.1624908874548
 30
0.0
 11
620.5512621347239
 21
477.7596608874548
 31
0.0
  0
LINE
  5
E1
330
2
100
AcDbEntity
  8
OUTLINE
100
AcDbLine
 10
620.5512621347239
 20
477.7596608874548
 30
0.0
 11
621.7279991347237
 21
477.2472168874549
 31
0.0
  0
LINE
  5
E2
330
2
100
AcDbEntity
  8
OUTLINE
100
AcDbLine
 10
621.7279991347237
 20
477.2472168874549
 30
0.0
 11
622.8989231347237
 21
476.6093658874548
 31
0.0
  0
LINE
  5
E3
330
2
100
AcDbEntity
  8
OUTLINE
100
AcDbLine
 10
622.8989231347237
 20
476.6093658874548
 30
0.0
 11
624.0177141347237
 21
475.8651568874547
 31
0.0
  0
LINE
  5
E4
330
2
100
AcDbEntity
  8
OUTLINE
100
AcDbLine
 10
624.0177141347237
 20
475.8651568874547
 30
0.0
 11
625.0927861347236
 21
475.0055688874548
 31
0.0
  0
LINE
  5
E5
330
2
100
AcDbEntity
  8
OUTLINE
100
AcDbLine
 10
625.0927861347236
 20
475.0055688874548
 30
0.0
 11
626.0954831347237
 21
474.0503968874548
 31
0.0
  0
LINE
  5
E6
330
2
100
AcDbEntity
  8
OUTLINE
100
AcDbLine
 10
626.0954831347237
 20
474.0503968874548
 30
0.0
 11
627.7049231347237
 21
472.1028518874549
 31
0.0
  0
LINE
  5
E7
330
2
100
AcDbEntity
  8
OUTLINE
100
AcDbLine
 10
627.7049231347237
 20
472.1028518874549
 30
0.0
 11
629.0357371347237
 21
469.8843968874548
 31
0.0
  0
LINE
  5
E8
330
2
100
AcDbEntity
  8
OUTLINE
100
AcDbLine
 10
629.0357371347237
 20
469.8843968874548
 30
0.0
 11
630.0032991347237
 21
467.5674228874548
 31
0.0
  0
LINE
  5
E9
330
2
100
AcDbEntity
  8
OUTLINE
100
AcDbLine
 10
630.0032991347237
 20
467.5674228874548
 30
0.0
 11
630.6523481347237
 21
465.0750288874548
 31
0.0
  0
LINE
  5
EA
330
2
100
AcDbEntity
  8
OUTLINE
100
AcDbLine
 10
630.6523481347237
 20
465.0750288874548
 30
0.0
 11
630.8599211347237
 21
463.6558528874546
 31
0.0
  0
LINE
  5
EB
330
2
100
AcDbEntity
  8
OUTLINE
100
AcDbLine
 10
630.8599211347237
 20
463.6558528874546
 30
0.0
 11
630.9566321347239
 21
462.2168558874546
 31
0.0
  0
LINE
  5
EC
330
2
100
AcDbEntity
  8
OUTLINE
100
AcDbLine
 10
630.9566321347239
 20
462.2168558874546
 30
0.0
 11
630.9389551347237
 21
460.7456378874549
 31
0.0
  0
LINE
  5
ED
330
2
100
AcDbEntity
  8
OUTLINE
100
AcDbLine
 10
630.9389551347237
 20
460.7456378874549
 30
0.0
 11
630.8030331347239
 21
459.2768338874548
 31
0.0
  0
LINE
  5
EE
330
2
100
AcDbEntity
  8
OUTLINE
100
AcDbLine
 10
630.8030331347239
 20
459.2768338874548
 30
0.0
 11
630.5541741347239
 21
457.8482228874547
 31
0.0
  0
LINE
  5
EF
330
2
100
AcDbEntity
  8
OUTLINE
100
AcDbLine
 10
630.5541741347239
 20
457.8482228874547
 30
0.0
 11
630.1911771347239
 21
456.4427108874548
 31
0.0
  0
LINE
  5
F0
330
2
100
AcDbEntity
  8
OUTLINE
100
AcDbLine
 10
630.1911771347239
 20
456.4427108874548
 30
0.0
 11
629.7068031347237
 21
455.0498508874547
 31
0.0
  0
LINE
  5
F1
330
2
100
AcDbEntity
  8
OUTLINE
100
AcDbLine
 10
629.7068031347237
 20
455.0498508874547
 30
0.0
 11
629.1056171347237
 21
453.6984688874548
 31
0.0
  0
LINE
  5
F2
330
2
100
AcDbEntity
  8
OUTLINE
100
AcDbLine
 10
629.1056171347237
 20
453.6984688874548
 30
0.0
 11
628.3234911347237
 21
452.2929908874548
 31
0.0
  0
LINE
  5
F3
330
2
100
AcDbEntity
  8
OUTLINE
100
AcDbLine
 10
628.3234911347237
 20
452.2929908874548
 30
0.0
 11
627.4028491347237
 21
450.9561338874548
 31
0.0
  0
LINE
  5
F4
330
2
100
AcDbEntity
  8
OUTLINE
100
AcDbLine
 10
643.9413551347237
 20
406.4655688874548
 30
0.0
 11
596.9413551347237
 21
406.4655688874548
 31
0.0
  0
LINE
  5
F5
330
2
100
AcDbEntity
  8
OUTLINE
100
AcDbLine
 10
644.4413551347237
 20
403.9655688874549
 30
0.0
 11
596.4413551347237
 21
403.9655688874549
 31
0.0
  0
LINE
  5
F6
330
2
100
AcDbEntity
  8
OUTLINE
100
AcDbLine
 10
596.9413551347237
 20
406.4655688874548
 30
0.0
 11
643.9413551347237
 21
406.4655688874548
 31
0.0
  0
LINE
  5
F7
330
2
100
AcDbEntity
  8
OUTLINE
100
AcDbLine
 10
643.9413551347237
 20
403.9655688874549
 30
0.0
 11
596.9413551347237
 21
403.9655688874549
 31
0.0
  0
ARC
  5
F8
330
2
100
AcDbEntity
  8
OUTLINE
 62
     7
100
AcDbCircle
 10
1152.441355134723
 20
408.3335208874548
 30
0.0
 40
556.0
100
AcDbArc
 50
179.8046099999984
 51
180.0
  0
LINE
  5
F9
330
2
100
AcDbEntity
  8
OUTLINE
100
AcDbLine
 10
596.4413551347237
 20
406.9655688874548
 30
0.0
 11
596.9413551347237
 21
406.4655688874548
 31
0.0
  0
LINE
  5
FA
330
2
100
AcDbEntity
  8
OUTLINE
100
AcDbLine
 10
596.4413551347237
 20
408.3335208874548
 30
0.0
 11
596.4413551347237
 21
406.9655688874548
 31
0.0
  0
LINE
  5
FB
330
2
100
AcDbEntity
  8
OUTLINE
100
AcDbLine
 10
596.4413551347237
 20
403.9655688874549
 30
0.0
 11
596.4413551347237
 21
405.9655688874547
 31
0.0
  0
LINE
  5
FC
330
2
100
AcDbEntity
  8
OUTLINE
100
AcDbLine
 10
596.9413551347237
 20
406.4655688874548
 30
0.0
 11
596.4413551347237
 21
405.9655688874547
 31
0.0
  0
LINE
  5
FD
330
2
100
AcDbEntity
  8
OUTLINE
 62
     7
100
AcDbLine
 10
596.4504931347237
 20
410.2452168874548
 30
0.0
 11
596.4473481347239
 21
410.2295478874548
 31
0.0
  0
LINE
  5
FE
330
2
100
AcDbEntity
  8
OUTLINE
 62
     7
100
AcDbLine
 10
596.4821581347236
 20
410.4058578874548
 30
0.0
 11
596.4504931347237
 21
410.2452168874548
 31
0.0
  0
LINE
  5
FF
330
2
100
AcDbEntity
  8
OUTLINE
100
AcDbLine
 10
643.9413551347237
 20
406.4655688874548
 30
0.0
 11
644.4413551347237
 21
406.9655688874548
 31
0.0
  0
LINE
  5
100
330
2
100
AcDbEntity
  8
OUTLINE
100
AcDbLine
 10
644.4413551347237
 20
406.9655688874548
 30
0.0
 11
644.4413551347237
 21
408.3335208874548
 31
0.0
  0
LINE
  5
101
330
2
100
AcDbEntity
  8
OUTLINE
100
AcDbLine
 10
644.4413551347237
 20
405.9655688874547
 30
0.0
 11
644.4413551347237
 21
403.9655688874549
 31
0.0
  0
LINE
  5
102
330
2
100
AcDbEntity
  8
OUTLINE
100
AcDbLine
 10
644.4413551347237
 20
405.9655688874547
 30
0.0
 11
643.9413551347237
 21
406.4655688874548
 31
0.0
  0
ARC
  5
103
330
2
100
AcDbEntity
  8
OUTLINE
 62
     7
100
AcDbCircle
 10
1152.441355134723
 20
408.3335208874548
 30
0.0
 40
556.0
100
AcDbArc
 50
174.8168130000002
 51
178.8274849999988
  0
ARC
  5
104
330
2
100
AcDbEntity
  8
OUTLINE
 62
     2
100
AcDbCircle
 10
621.7413551347239
 20
414.9655688874548
 30
0.0
 40
25.0
100
AcDbArc
 50
174.3382830000003
 51
185.1017519999997
  0
LINE
  5
105
330
2
100
AcDbEntity
  8
OUTLINE
 62
     7
100
AcDbLine
 10
596.9121031347238
 20
416.7701878874549
 30
0.0
 11
596.9475191347237
 21
415.9907908874548
 31
0.0
  0
LINE
  5
106
330
2
100
AcDbEntity
  8
OUTLINE
 62
     7
100
AcDbLine
 10
596.9582241347238
 20
415.2141788874549
 30
0.0
 11
596.9433301347237
 21
414.4076708874548
 31
0.0
  0
LINE
  5
107
330
2
100
AcDbEntity
  8
OUTLINE
 62
     7
100
AcDbLine
 10
596.9475191347237
 20
415.9907908874548
 30
0.0
 11
596.9582241347238
 21
415.2141788874549
 31
0.0
  0
LINE
  5
108
330
2
100
AcDbEntity
  8
OUTLINE
 62
     7
100
AcDbLine
 10
596.8588571347237
 20
417.4752938874548
 30
0.0
 11
596.9121031347238
 21
416.7701878874549
 31
0.0
  0
LINE
  5
109
330
2
100
AcDbEntity
  8
OUTLINE
 62
     7
100
AcDbLine
 10
596.7922121347237
 20
418.1238578874548
 30
0.0
 11
596.8588571347237
 21
417.4752938874548
 31
0.0
  0
LINE
  5
10A
330
2
100
AcDbEntity
  8
OUTLINE
 62
     7
100
AcDbLine
 10
596.7235791347238
 20
418.6662718874548
 30
0.0
 11
596.7922121347237
 21
418.1238578874548
 31
0.0
  0
LINE
  5
10B
330
2
100
AcDbEntity
  8
OUTLINE
 62
     7
100
AcDbLine
 10
596.6583251347238
 20
419.1128768874547
 30
0.0
 11
596.7235791347238
 21
418.6662718874548
 31
0.0
  0
LINE
  5
10C
330
2
100
AcDbEntity
  8
OUTLINE
 62
     7
100
AcDbLine
 10
596.6063771347237
 20
419.4351148874549
 30
0.0
 11
596.6583251347238
 21
419.1128768874547
 31
0.0
  0
LINE
  5
10D
330
2
100
AcDbEntity
  8
OUTLINE
 62
     7
100
AcDbLine
 10
596.5709391347237
 20
419.6417258874547
 30
0.0
 11
596.6063771347237
 21
419.4351148874549
 31
0.0
  0
LINE
  5
10E
330
2
100
AcDbEntity
  8
OUTLINE
 62
     7
100
AcDbLine
 10
596.5579361347237
 20
419.7152038874548
 30
0.0
 11
596.5709391347237
 21
419.6417258874547
 31
0.0
  0
LINE
  5
10F
330
2
100
AcDbEntity
  8
OUTLINE
 62
     7
100
AcDbLine
 10
596.5587121347237
 20
419.7108178874549
 30
0.0
 11
596.5579361347237
 21
419.7152038874548
 31
0.0
  0
LINE
  5
110
330
2
100
AcDbEntity
  8
OUTLINE
 62
     7
100
AcDbLine
 10
596.6961231347237
 20
411.6673648874549
 30
0.0
 11
596.7351571347237
 21
411.9610838874549
 31
0.0
  0
LINE
  5
111
330
2
100
AcDbEntity
  8
OUTLINE
 62
     7
100
AcDbLine
 10
596.4504931347237
 20
410.2452168874548
 30
0.0
 11
596.4473481347239
 21
410.2295478874548
 31
0.0
  0
LINE
  5
112
330
2
100
AcDbEntity
  8
OUTLINE
 62
     7
100
AcDbLine
 10
596.4821581347236
 20
410.4058578874548
 30
0.0
 11
596.4504931347237
 21
410.2452168874548
 31
0.0
  0
LINE
  5
113
330
2
100
AcDbEntity
  8
OUTLINE
 62
     7
100
AcDbLine
 10
596.5358171347237
 20
410.6904058874548
 30
0.0
 11
596.4821581347236
 21
410.4058578874548
 31
0.0
  0
LINE
  5
114
330
2
100
AcDbEntity
  8
OUTLINE
 62
     7
100
AcDbLine
 10
596.6087501347239
 20
411.1071298874549
 30
0.0
 11
596.5358171347237
 21
410.6904058874548
 31
0.0
  0
LINE
  5
115
330
2
100
AcDbEntity
  8
OUTLINE
 62
     7
100
AcDbLine
 10
596.6892631347238
 20
411.6203308874548
 30
0.0
 11
596.6087501347239
 21
411.1071298874549
 31
0.0
  0
LINE
  5
116
330
2
100
AcDbEntity
  8
OUTLINE
 62
     7
100
AcDbLine
 10
596.7718961347237
 20
412.2338548874548
 30
0.0
 11
596.6892631347238
 21
411.6203308874548
 31
0.0
  0
LINE
  5
117
330
2
100
AcDbEntity
  8
OUTLINE
 62
     7
100
AcDbLine
 10
596.8452041347237
 20
412.9057498874549
 30
0.0
 11
596.7718961347237
 21
412.2338548874548
 31
0.0
  0
LINE
  5
118
330
2
100
AcDbEntity
  8
OUTLINE
 62
     7
100
AcDbLine
 10
596.9051471347237
 20
413.6486248874548
 30
0.0
 11
596.8452041347237
 21
412.9057498874549
 31
0.0
  0
LINE
  5
119
330
2
100
AcDbEntity
  8
OUTLINE
 62
     7
100
AcDbLine
 10
596.9433301347237
 20
414.4076708874548
 30
0.0
 11
596.9051471347237
 21
413.6486248874548
 31
0.0
  0
ARC
  5
11A
330
2
100
AcDbEntity
  8
OUTLINE
 62
     7
100
AcDbCircle
 10
88.44135513472384
 20
408.3335208874548
 30
0.0
 40
556.0
100
AcDbArc
 50
0.0
 51
8.510210999998527
  0
ARC
  5
11B
330
2
100
AcDbEntity
  8
OUTLINE
 62
     7
100
AcDbCircle
 10
1152.441355134723
 20
408.3335208874548
 30
0.0
 40
556.0
100
AcDbArc
 50
171.4897890000014
 51
174.0824449999973
  0
LINE
  5
11C
330
2
100
AcDbEntity
  8
OUTLINE
100
AcDbLine
 10
607.4413541347237
 20
491.5655688874549
 30
0.0
 11
607.4413541347237
 21
491.4655698874549
 31
0.0
  0
LINE
  5
11D
330
2
100
AcDbEntity
  8
OUTLINE
100
AcDbLine
 10
607.4460641347237
 20
491.5655688874549
 30
0.0
 11
607.4413541347237
 21
491.5574108874549
 31
0.0
  0
ARC
  5
11E
330
2
100
AcDbEntity
  8
OUTLINE
100
AcDbCircle
 10
603.5521791347236
 20
490.4655688874548
 30
0.0
 40
1.0
100
AcDbArc
 50
90.0
 51
171.4897890000014
  0
LINE
  5
11F
330
2
100
AcDbEntity
  8
OUTLINE
100
AcDbLine
 10
603.5521791347236
 20
491.4655688874549
 30
0.0
 11
637.3305301347237
 21
491.4655688874549
 31
0.0
  0
LINE
  5
120
330
2
100
AcDbEntity
  8
OUTLINE
100
AcDbLine
 10
633.4366451347237
 20
491.5655688874549
 30
0.0
 11
633.4413551347237
 21
491.5574108874549
 31
0.0
  0
LINE
  5
121
330
2
100
AcDbEntity
  8
OUTLINE
100
AcDbLine
 10
633.4413551347237
 20
491.4655698874549
 30
0.0
 11
633.4413551347237
 21
491.5655688874549
 31
0.0
  0
ARC
  5
122
330
2
100
AcDbEntity
  8
OUTLINE
100
AcDbCircle
 10
637.3305301347237
 20
490.4655688874548
 30
0.0
 40
1.0
100
AcDbArc
 50
8.510210999998527
 51
90.0
  0
LINE
  5
123
330
2
100
AcDbEntity
  8
OUTLINE
100
AcDbLine
 10
606.3652801347237
 20
511.1655688874549
 30
0.0
 11
634.5174421347238
 21
511.1655688874549
 31
0.0
  0
LINE
  5
124
330
2
100
AcDbEntity
  8
OUTLINE
100
AcDbLine
 10
606.5232231347237
 20
511.4655688874548
 30
0.0
 11
634.3594981347237
 21
511.4655688874548
 31
0.0
  0
LINE
  5
125
330
2
100
AcDbEntity
  8
OUTLINE
100
AcDbLine
 10
603.8708311347237
 20
491.5655688874549
 30
0.0
 11
637.0118901347238
 21
491.5655688874549
 31
0.0
  0
LINE
  5
126
330
2
100
AcDbEntity
  8
OUTLINE
100
AcDbLine
 10
605.1913611347237
 20
506.6424918874548
 30
0.0
 11
605.1913611347237
 21
497.5588938874549
 31
0.0
  0
ARC
  5
127
330
2
100
AcDbEntity
  8
OUTLINE
100
AcDbCircle
 10
603.1913611347237
 20
497.5588938874549
 30
0.0
 40
2.0
100
AcDbArc
 50
274.6824169999995
 51
0.0
  0
LINE
  5
128
330
2
100
AcDbEntity
  8
OUTLINE
100
AcDbLine
 10
603.3546261347237
 20
495.5655688874549
 30
0.0
 11
602.8843021347237
 21
492.7291518874548
 31
0.0
  0
ARC
  5
129
330
2
100
AcDbEntity
  8
OUTLINE
100
AcDbCircle
 10
603.8708311347237
 20
492.5655688874549
 30
0.0
 40
1.0
100
AcDbArc
 50
170.5850880000001
 51
270.0
  0
LINE
  5
12A
330
2
100
AcDbEntity
  8
OUTLINE
100
AcDbLine
 10
605.8720151347237
 20
510.7473598874547
 30
0.0
 11
605.1913611347237
 21
506.6424918874548
 31
0.0
  0
ARC
  5
12B
330
2
100
AcDbEntity
  8
OUTLINE
100
AcDbCircle
 10
606.3652801347237
 20
510.6655688874549
 30
0.0
 40
0.5
100
AcDbArc
 50
90.0
 51
170.5850880000001
  0
ARC
  5
12C
330
2
100
AcDbEntity
  8
OUTLINE
100
AcDbCircle
 10
606.5232231347237
 20
511.9655688874549
 30
0.0
 40
0.5
100
AcDbArc
 50
171.511630999999
 51
270.0
  0
LINE
  5
12D
330
2
100
AcDbEntity
  8
OUTLINE
100
AcDbLine
 10
610.4413611347236
 20
511.3655688874549
 30
0.0
 11
630.4413611347237
 21
511.3655688874549
 31
0.0
  0
LINE
  5
12E
330
2
100
AcDbEntity
  8
OUTLINE
100
AcDbLine
 10
612.4913611347237
 20
511.4655688874548
 30
0.0
 11
612.4913611347237
 21
511.3655688874549
 31
0.0
  0
LINE
  5
12F
330
2
100
AcDbEntity
  8
OUTLINE
100
AcDbLine
 10
610.4413611347236
 20
511.1655688874549
 30
0.0
 11
610.4413611347236
 21
511.3655688874549
 31
0.0
  0
LINE
  5
130
330
2
100
AcDbEntity
  8
OUTLINE
100
AcDbLine
 10
628.3913611347237
 20
511.4655688874548
 30
0.0
 11
628.3913611347237
 21
511.3655688874549
 31
0.0
  0
LINE
  5
131
330
2
100
AcDbEntity
  8
OUTLINE
100
AcDbLine
 10
630.4413611347237
 20
511.1655688874549
 30
0.0
 11
630.4413611347237
 21
511.3655688874549
 31
0.0
  0
LINE
  5
132
330
2
100
AcDbEntity
  8
OUTLINE
100
AcDbLine
 10
635.6913611347237
 20
506.6424918874548
 30
0.0
 11
635.6913611347237
 21
497.5588938874549
 31
0.0
  0
LINE
  5
133
330
2
100
AcDbEntity
  8
OUTLINE
100
AcDbLine
 10
637.5280951347236
 20
495.5655688874549
 30
0.0
 11
637.9984201347236
 21
492.7291518874548
 31
0.0
  0
ARC
  5
134
330
2
100
AcDbEntity
  8
OUTLINE
100
AcDbCircle
 10
637.6913611347236
 20
497.5588938874549
 30
0.0
 40
2.0
100
AcDbArc
 50
180.0
 51
265.3175830000004
  0
ARC
  5
135
330
2
100
AcDbEntity
  8
OUTLINE
100
AcDbCircle
 10
637.0118901347238
 20
492.5655688874549
 30
0.0
 40
1.0
100
AcDbArc
 50
270.0
 51
9.414911999999743
  0
LINE
  5
136
330
2
100
AcDbEntity
  8
OUTLINE
100
AcDbLine
 10
635.0107061347237
 20
510.7473598874547
 30
0.0
 11
635.6913611347237
 21
506.6424918874548
 31
0.0
  0
ARC
  5
137
330
2
100
AcDbEntity
  8
OUTLINE
100
AcDbCircle
 10
634.5174421347238
 20
510.6655688874549
 30
0.0
 40
0.5
100
AcDbArc
 50
9.414911999999743
 51
90.0
  0
ARC
  5
138
330
2
100
AcDbEntity
  8
OUTLINE
100
AcDbCircle
 10
634.3594981347237
 20
511.9655688874549
 30
0.0
 40
0.5
100
AcDbArc
 50
270.0
 51
8.488369000000954
  0
ARC
  5
139
330
2
100
AcDbEntity
  8
OUTLINE
100
AcDbCircle
 10
733.7586001347237
 20
526.8002378874548
 30
0.0
 40
100.0
100
AcDbArc
 50
180.2170097193464
 51
188.4883690000009
  0
ARC
  5
13A
330
2
100
AcDbEntity
  8
OUTLINE
100
AcDbCircle
 10
507.1241101347236
 20
526.8002378874548
 30
0.0
 40
100.0
100
AcDbArc
 50
351.511630999999
 51
359.7829902806576
  0
POINT
  5
151
330
2
100
AcDbEntity
  8
0
  6
CONTINUOUS
 62
     5
100
AcDbPoint
 10
620.4413551347236
 20
403.9655688874549
 30
0.0
  0
ENDSEC
  0
SECTION
  2
OBJECTS
  0
DICTIONARY
  5
A
330
0
100
AcDbDictionary
  3
ACAD_COLOR
350
30
  3
ACAD_GROUP
350
2C
  3
ACAD_LAYOUT
350
F
  3
ACAD_MATERIAL
350
2F
  3
ACAD_MLINESTYLE
350
2D
  3
ACAD_PLOTSETTINGS
350
2E
  3
ACAD_PLOTSTYLENAME
350
9
  3
ACAD_TABLESTYLE
350
31
  3
ACDBVARIABLEDICTIONARY
350
13C
  3
ACDBHEADERROUNDTRIPXREC
350
16F
  0
DICTIONARY
  5
3
330
2
100
AcDbDictionary
280
     1
  3
ACAD_LAYOUTSELFREF
360
190
  3
ACAD_SORTENTS
360
13B
  0
DICTIONARY
  5
12
330
11
100
AcDbDictionary
280
     1
  3
ACAD_LAYOUTSELFREF
360
191
  0
DICTIONARY
  5
30
102
{ACAD_REACTORS
330
A
102
}
330
A
100
AcDbDictionary
  0
DICTIONARY
  5
2C
102
{ACAD_REACTORS
330
A
102
}
330
A
100
AcDbDictionary
  0
DICTIONARY
  5
F
102
{ACAD_REACTORS
330
A
102
}
330
A
100
AcDbDictionary
  0
DICTIONARY
  5
2F
102
{ACAD_REACTORS
330
A
102
}
330
A
100
AcDbDictionary
  0
DICTIONARY
  5
2D
102
{ACAD_REACTORS
330
A
102
}
330
A
100
AcDbDictionary
  3
STANDARD
350
32
  0
DICTIONARY
  5
2E
102
{ACAD_REACTORS
330
A
102
}
330
A
100
AcDbDictionary
  0
ACDBDICTIONARYWDFLT
  5
9
102
{ACAD_REACTORS
330
A
102
}
330
A
100
AcDbDictionary
281
     1
  3
Normal
350
8
100
AcDbDictionaryWithDefault
340
8
1001
ACAD
1000
TREAT_AS_HARD
1070
     0
  0
DICTIONARY
  5
31
102
{ACAD_REACTORS
330
A
102
}
330
A
100
AcDbDictionary
  3
STANDARD
350
33
  0
DICTIONARY
  5
13C
102
{ACAD_REACTORS
330
A
102
}
330
A
100
AcDbDictionary
  3
CTABLESTYLE
350
13D
  3
DIMASSOC
350
14B
  3
HIDETEXT
350
14A
  3
PROJECTNAME
350
14C
  0
DICTIONARY
  5
16F
102
{ACAD_REACTORS
330
A
102
}
330
A
100
AcDbDictionary
  3
TSTACKALIGN
350
170
  3
TSTACKSIZE
350
171
  3
HYPERLINKBASE
350
172
  3
STYLESHEET
350
173
  3
LAYOUTDICT
350
174
  3
PLOTSETDICT
350
175
  3
PLOTSTYLNAMDICT
350
176
  3
LWETCUNION
350
177
  3
INSUNITS
350
178
  3
CEPSNTYPE
350
179
  3
FINGERPRINTGUID
350
17A
  3
VERSIONGUID
350
17B
  3
PSVPSCALE
350
17C
  3
DIMSTYLEDATA
350
17D
  3
PUCSORTHOREF
350
17E
  3
PUCSORTHOVIEW
350
17F
  3
PUCSBASE
350
180
  3
PUCSORGTOP
350
181
  3
PUCSORGBOTTOM
350
182
  3
PUCSORGLEFT
350
183
  3
PUCSORGRIGHT
350
184
  3
PUCSORGFRONT
350
185
  3
PUCSORGBACK
350
186
  3
UCSORTHOREF
350
187
  3
UCSORTHOVIEW
350
188
  3
UCSBASE
350
189
  3
UCSORGTOP
350
18A
  3
UCSORGBOTTOM
350
18B
  3
UCSORGLEFT
350
18C
  3
UCSORGRIGHT
350
18D
  3
UCSORGFRONT
350
18E
  3
UCSORGBACK
350
18F
  0
XRECORD
  5
190
102
{ACAD_REACTORS
330
3
102
}
330
3
100
AcDbXrecord
340
2
  0
SORTENTSTABLE
  5
13B
102
{ACAD_REACTORS
330
3
102
}
330
3
100
AcDbSortentsTable
330
2
  0
XRECORD
  5
191
102
{ACAD_REACTORS
330
12
102
}
330
12
100
AcDbXrecord
340
11
  0
MLINESTYLE
  5
32
102
{ACAD_REACTORS
330
2D
102
}
330
2D
100
AcDbMlineStyle
  2
STANDARD
 70
     0
  3

 62
   256
 51
90.0
 52
90.0
 71
     2
 49
0.5
 62
   256
  6
BYLAYER
 49
-0.5
 62
   256
  6
BYLAYER
  0
ACDBPLACEHOLDER
  5
8
102
{ACAD_REACTORS
330
9
102
}
330
9
100
AcDbPlaceHolder
280
     0
  0
ACAD_PROXY_OBJECT
  5
33
102
{ACAD_REACTORS
330
31
102
}
330
31
100
AcDbProxyObject
 90
      499
 91
      506
 93
     1841
310
4214DD185B99185C9928B81E85EB51B8AE3F2E07A17AD46E2B8FC02B5E8DC0F42B1CFD028000000C1008070000C3001FDFF8000000C1003FBFF000000182007F7FE00000030400FEFFC00000060801FDFF8000000C1003FBFF00000018200000000000000681FA0B0000001820100E000186003FBFF000000182007F7FE000
310
00030400FEFFC00000060801FDFF8000000C1003FBFF000000182007F7FE000000304000AD7A3703D0AC73F4160000003040201C00030C007F7FE00000030400FEFFC00000060801FDFF8000000C1003FBFF000000182007F7FE00000030400FEFFC000000608008
340
19
340
19
340
19
 94
        0
1001
ACAD
1000
AcadProxyRoundTripData
1071
      504
1071
   393239
1070
     0
  0
DICTIONARYVAR
  5
13D
102
{ACAD_REACTORS
330
13C
102
}
330
13C
100
DictionaryVariables
280
     0
  1
STANDARD
  0
DICTIONARYVAR
  5
14B
102
{ACAD_REACTORS
330
13C
102
}
330
13C
100
DictionaryVariables
280
     0
  1
1
  0
DICTIONARYVAR
  5
14A
102
{ACAD_REACTORS
330
13C
102
}
330
13C
100
DictionaryVariables
280
     0
  1
1
  0
DICTIONARYVAR
  5
14C
102
{ACAD_REACTORS
330
13C
102
}
330
13C
100
DictionaryVariables
280
     0
  1

  0
XRECORD
  5
170
102
{ACAD_REACTORS
330
16F
102
}
330
16F
100
AcDbXrecord
 90
        1
  0
XRECORD
  5
171
102
{ACAD_REACTORS
330
16F
102
}
330
16F
100
AcDbXrecord
 90
       70
  0
XRECORD
  5
172
102
{ACAD_REACTORS
330
16F
102
}
330
16F
100
AcDbXrecord
  1

  0
XRECORD
  5
173
102
{ACAD_REACTORS
330
16F
102
}
330
16F
100
AcDbXrecord
  1

  0
XRECORD
  5
174
102
{ACAD_REACTORS
330
16F
102
}
330
16F
100
AcDbXrecord
340
F
  0
XRECORD
  5
175
102
{ACAD_REACTORS
330
16F
102
}
330
16F
100
AcDbXrecord
340
2E
  0
XRECORD
  5
176
102
{ACAD_REACTORS
330
16F
102
}
330
16F
100
AcDbXrecord
340
9
  0
XRECORD
  5
177
102
{ACAD_REACTORS
330
16F
102
}
330
16F
100
AcDbXrecord
 90
    10781
  0
XRECORD
  5
178
102
{ACAD_REACTORS
330
16F
102
}
330
16F
100
AcDbXrecord
 90
        0
  0
XRECORD
  5
179
102
{ACAD_REACTORS
330
16F
102
}
330
16F
100
AcDbXrecord
 90
        0
  0
XRECORD
  5
17A
102
{ACAD_REACTORS
330
16F
102
}
330
16F
100
AcDbXrecord
  1
{005F0C0E-5D6F-46AF-8070-332A6D741D23}
  0
XRECORD
  5
17B
102
{ACAD_REACTORS
330
16F
102
}
330
16F
100
AcDbXrecord
  1
{AAFE4AD9-1E72-4FB8-A2FE-07E9FF3883ED}
  0
XRECORD
  5
17C
102
{ACAD_REACTORS
330
16F
102
}
330
16F
100
AcDbXrecord
 40
0.0
  0
XRECORD
  5
17D
102
{ACAD_REACTORS
330
16F
102
}
330
16F
100
AcDbXrecord
1000
DSTYLE
1002
{
1070
    79
 70
     2
1070
   179
 70
     1
1070
   341
340
25
1070
   342
340
25
1002
}
  0
XRECORD
  5
17E
102
{ACAD_REACTORS
330
16F
102
}
330
16F
100
AcDbXrecord
340
0
  0
XRECORD
  5
17F
102
{ACAD_REACTORS
330
16F
102
}
330
16F
100
AcDbXrecord
 70
     0
  0
XRECORD
  5
180
102
{ACAD_REACTORS
330
16F
102
}
330
16F
100
AcDbXrecord
340
0
  0
XRECORD
  5
181
102
{ACAD_REACTORS
330
16F
102
}
330
16F
100
AcDbXrecord
 10
0.0
 20
0.0
 30
0.0
  0
XRECORD
  5
182
102
{ACAD_REACTORS
330
16F
102
}
330
16F
100
AcDbXrecord
 10
0.0
 20
0.0
 30
0.0
  0
XRECORD
  5
183
102
{ACAD_REACTORS
330
16F
102
}
330
16F
100
AcDbXrecord
 10
0.0
 20
0.0
 30
0.0
  0
XRECORD
  5
184
102
{ACAD_REACTORS
330
16F
102
}
330
16F
100
AcDbXrecord
 10
0.0
 20
0.0
 30
0.0
  0
XRECORD
  5
185
102
{ACAD_REACTORS
330
16F
102
}
330
16F
100
AcDbXrecord
 10
0.0
 20
0.0
 30
0.0
  0
XRECORD
  5
186
102
{ACAD_REACTORS
330
16F
102
}
330
16F
100
AcDbXrecord
 10
0.0
 20
0.0
 30
0.0
  0
XRECORD
  5
187
102
{ACAD_REACTORS
330
16F
102
}
330
16F
100
AcDbXrecord
340
0
  0
XRECORD
  5
188
102
{ACAD_REACTORS
330
16F
102
}
330
16F
100
AcDbXrecord
 70
     0
  0
XRECORD
  5
189
102
{ACAD_REACTORS
330
16F
102
}
330
16F
100
AcDbXrecord
340
0
  0
XRECORD
  5
18A
102
{ACAD_REACTORS
330
16F
102
}
330
16F
100
AcDbXrecord
 10
0.0
 20
0.0
 30
0.0
  0
XRECORD
  5
18B
102
{ACAD_REACTORS
330
16F
102
}
330
16F
100
AcDbXrecord
 10
0.0
 20
0.0
 30
0.0
  0
XRECORD
  5
18C
102
{ACAD_REACTORS
330
16F
102
}
330
16F
100
AcDbXrecord
 10
0.0
 20
0.0
 30
0.0
  0
XRECORD
  5
18D
102
{ACAD_REACTORS
330
16F
102
}
330
16F
100
AcDbXrecord
 10
0.0
 20
0.0
 30
0.0
  0
XRECORD
  5
18E
102
{ACAD_REACTORS
330
16F
102
}
330
16F
100
AcDbXrecord
 10
0.0
 20
0.0
 30
0.0
  0
XRECORD
  5
18F
102
{ACAD_REACTORS
330
16F
102
}
330
16F
100
AcDbXrecord
 10
0.0
 20
0.0
 30
0.0
  0
ENDSEC
  0
EOF
