  0
SECTION
  2
HEADER
  9
$ACADVER
  1
AC1014
  9
$ACADMAINTVER
 70
     9
  9
$DWGCODEPAGE
  3
ANSI_932
  9
$INSBASE
 10
620.4413551347236
 20
737.8302580186669
 30
0.0
  9
$EXTMIN
 10
425.6642671347235
 20
687.4621666088757
 30
0.0
  9
$EXTMAX
 10
643.4413551347237
 20
760.8302580186668
 30
0.0
  9
$LIMMIN
 10
36.0
 20
25.5
  9
$LIMMAX
 10
1224.0
 20
865.4999999999999
  9
$ORTHOMODE
 70
     1
  9
$REGENMODE
 70
     1
  9
$FILLMODE
 70
     1
  9
$QTEXTMODE
 70
     0
  9
$MIRRTEXT
 70
     0
  9
$DRAGMODE
 70
     2
  9
$LTSCALE
 40
2.0
  9
$OSMODE
 70
   513
  9
$ATTMODE
 70
     1
  9
$TEXTSIZE
 40
0.2
  9
$TRACEWID
 40
0.05
  9
$TEXTSTYLE
  7
STANDARD
  9
$CLAYER
  8
0
  9
$CELTYPE
  6
CONTINUOUS
  9
$CECOLOR
 62
   256
  9
$CELTSCALE
 40
1.0
  9
$DELOBJ
 70
     1
  9
$DISPSILH
 70
     0
  9
$DIMSCALE
 40
3.0
  9
$DIMASZ
 40
2.0
  9
$DIMEXO
 40
2.0
  9
$DIMDLI
 40
7.0
  9
$DIMRND
 40
0.0
  9
$DIMDLE
 40
0.0
  9
$DIMEXE
 40
0.5
  9
$DIMTP
 40
0.0
  9
$DIMTM
 40
0.0
  9
$DIMTXT
 40
2.0
  9
$DIMCEN
 40
0.09
  9
$DIMTSZ
 40
0.0
  9
$DIMTOL
 70
     0
  9
$DIMLIM
 70
     0
  9
$DIMTIH
 70
     0
  9
$DIMTOH
 70
     0
  9
$DIMSE1
 70
     0
  9
$DIMSE2
 70
     0
  9
$DIMTAD
 70
     1
  9
$DIMZIN
 70
     8
  9
$DIMBLK
  1
OPEN
  9
$DIMASO
 70
     1
  9
$DIMSHO
 70
     1
  9
$DIMPOST
  1

  9
$DIMAPOST
  1

  9
$DIMALT
 70
     0
  9
$DIMALTD
 70
     2
  9
$DIMALTF
 40
0.03937
  9
$DIMLFAC
 40
1.0
  9
$DIMTOFL
 70
     1
  9
$DIMTVP
 40
0.0
  9
$DIMTIX
 70
     0
  9
$DIMSOXD
 70
     0
  9
$DIMSAH
 70
     0
  9
$DIMBLK1
  1

  9
$DIMBLK2
  1

  9
$DIMSTYLE
  2
G1
  9
$DIMCLRD
 70
     0
  9
$DIMCLRE
 70
     0
  9
$DIMCLRT
 70
     7
  9
$DIMTFAC
 40
1.0
  9
$DIMGAP
 40
0.8
  9
$DIMJUST
 70
     0
  9
$DIMSD1
 70
     0
  9
$DIMSD2
 70
     0
  9
$DIMTOLJ
 70
     1
  9
$DIMTZIN
 70
     0
  9
$DIMALTZ
 70
     0
  9
$DIMALTTZ
 70
     0
  9
$DIMFIT
 70
     3
  9
$DIMUPT
 70
     0
  9
$DIMUNIT
 70
     2
  9
$DIMDEC
 70
     2
  9
$DIMTDEC
 70
     2
  9
$DIMALTU
 70
     2
  9
$DIMALTTD
 70
     2
  9
$DIMTXSTY
  7
STANDARD
  9
$DIMAUNIT
 70
     0
  9
$LUNITS
 70
     2
  9
$LUPREC
 70
     4
  9
$SKETCHINC
 40
0.1
  9
$FILLETRAD
 40
5.0
  9
$AUNITS
 70
     0
  9
$AUPREC
 70
     0
  9
$MENU
  1
.
  9
$ELEVATION
 40
0.0
  9
$PELEVATION
 40
0.0
  9
$THICKNESS
 40
0.0
  9
$LIMCHECK
 70
     0
  9
$BLIPMODE
 70
     0
  9
$CHAMFERA
 40
0.0
  9
$CHAMFERB
 40
0.0
  9
$CHAMFERC
 40
0.0
  9
$CHAMFERD
 40
0.0
  9
$SKPOLY
 70
     0
  9
$TDCREATE
 40
2452110.000000000
  9
$TDUPDATE
 40
2453944.013447083
  9
$TDINDWG
 40
0.3620679514
  9
$TDUSRTIMER
 40
0.3620675926
  9
$USRTIMER
 70
     1
  9
$ANGBASE
 50
0.0
  9
$ANGDIR
 70
     0
  9
$PDMODE
 70
     3
  9
$PDSIZE
 40
0.0
  9
$PLINEWID
 40
0.0
  9
$COORDS
 70
     1
  9
$SPLFRAME
 70
     0
  9
$SPLINETYPE
 70
     6
  9
$SPLINESEGS
 70
     8
  9
$ATTDIA
 70
     0
  9
$ATTREQ
 70
     1
  9
$HANDLING
 70
 10241
  9
$HANDSEED
  5
A8
  9
$SURFTAB1
 70
     6
  9
$SURFTAB2
 70
     6
  9
$SURFTYPE
 70
     6
  9
$SURFU
 70
     6
  9
$SURFV
 70
     6
  9
$UCSNAME
  2

  9
$UCSORG
 10
0.0
 20
0.0
 30
0.0
  9
$UCSXDIR
 10
1.0
 20
0.0
 30
0.0
  9
$UCSYDIR
 10
0.0
 20
1.0
 30
0.0
  9
$PUCSNAME
  2

  9
$PUCSORG
 10
0.0
 20
0.0
 30
0.0
  9
$PUCSXDIR
 10
1.0
 20
0.0
 30
0.0
  9
$PUCSYDIR
 10
0.0
 20
1.0
 30
0.0
  9
$USERI1
 70
     0
  9
$USERI2
 70
     0
  9
$USERI3
 70
     0
  9
$USERI4
 70
     0
  9
$USERI5
 70
     0
  9
$USERR1
 40
0.0
  9
$USERR2
 40
0.0
  9
$USERR3
 40
0.0
  9
$USERR4
 40
0.0
  9
$USERR5
 40
0.0
  9
$WORLDVIEW
 70
     1
  9
$SHADEDGE
 70
     3
  9
$SHADEDIF
 70
    70
  9
$TILEMODE
 70
     1
  9
$MAXACTVP
 70
    48
  9
$PINSBASE
 10
0.0
 20
0.0
 30
0.0
  9
$PLIMCHECK
 70
     0
  9
$PEXTMIN
 10
1.000000000000000E+20
 20
1.000000000000000E+20
 30
1.000000000000000E+20
  9
$PEXTMAX
 10
-1.000000000000000E+20
 20
-1.000000000000000E+20
 30
-1.000000000000000E+20
  9
$PLIMMIN
 10
0.0
 20
0.0
  9
$PLIMMAX
 10
12.0
 20
9.0
  9
$UNITMODE
 70
     0
  9
$VISRETAIN
 70
     1
  9
$PLINEGEN
 70
     0
  9
$PSLTSCALE
 70
     1
  9
$TREEDEPTH
 70
  3020
  9
$PICKSTYLE
 70
     1
  9
$CMLSTYLE
  2
STANDARD
  9
$CMLJUST
 70
     0
  9
$CMLSCALE
 40
1.0
  9
$PROXYGRAPHICS
 70
     1
  9
$MEASUREMENT
 70
     0
  0
ENDSEC
  0
SECTION
  2
CLASSES
  0
CLASS
  1
ACDBDICTIONARYWDFLT
  2
AcDbDictionaryWithDefault
  3
AutoCAD 2000
 90
        0
280
     0
281
     0
  0
CLASS
  1
ACDBPLACEHOLDER
  2
AcDbPlaceHolder
  3
AutoCAD 2000
 90
        0
280
     0
281
     0
  0
CLASS
  1
LAYOUT
  2
AcDbLayout
  3
AutoCAD 2000
 90
        0
280
     0
281
     0
  0
CLASS
  1
DICTIONARYVAR
  2
AcDbDictionaryVar
  3
AutoCAD 2000
 90
        0
280
     0
281
     0
  0
CLASS
  1
TABLESTYLE
  2
AcDbTableStyle
  3
ObjectDBX Classes
 90
     2047
280
     0
281
     0
  0
CLASS
  1
SORTENTSTABLE
  2
AcDbSortentsTable
  3
AutoCAD 2000
 90
        0
280
     0
281
     0
  0
CLASS
  1
ACAD_PROXY_OBJECT_WRAPPER
  2
AcDbProxyObjectWrapper
  3
AutoCAD 2000
 90
        0
280
     0
281
     0
  0
CLASS
  1
LONG_TRANSACTION
  2
AcDbLongTransaction
  3
AutoCAD 2000
 90
        0
280
     0
281
     0
  0
CLASS
  1
LWPOLYLINE
  2
AcDbPolyline
  3
AutoCAD 2000
 90
        0
280
     0
281
     1
  0
CLASS
  1
HATCH
  2
AcDbHatch
  3
AutoCAD 2000
 90
        0
280
     0
281
     1
  0
CLASS
  1
XRECORD
  2
AcDbXrecord
  3
AutoCAD 2000
 90
        0
280
     0
281
     0
  0
CLASS
  1
LONG_TRANSACTION
  2
AcDbLongTransaction
  3
AutoCAD 2000
 90
        0
280
     0
281
     0
  0
CLASS
  1
LWPOLYLINE
  2
AcDbPolyline
  3
AutoCAD 2000
 90
        0
280
     0
281
     1
  0
CLASS
  1
HATCH
  2
AcDbHatch
  3
AutoCAD 2000
 90
        0
280
     0
281
     1
  0
CLASS
  1
XRECORD
  2
AcDbXrecord
  3
AutoCAD 2000
 90
        0
280
     0
281
     0
  0
ENDSEC
  0
SECTION
  2
TABLES
  0
TABLE
  2
VPORT
  5
20
330
0
100
AcDbSymbolTable
 70
     2
  0
VPORT
  5
84
330
20
100
AcDbSymbolTableRecord
100
AcDbViewportTableRecord
  2
*ACTIVE
 70
     0
 10
0.0
 20
0.0
 11
1.0
 21
1.0
 12
537.9112142962845
 22
724.3421653663301
 13
0.0
 23
0.0
 14
1.0
 24
1.0
 15
0.0
 25
0.0
 16
0.0
 26
0.0
 36
1.0
 17
0.0
 27
0.0
 37
0.0
 40
116.8740245281894
 41
1.933867735470941
 42
50.0
 43
0.0
 44
0.0
 50
0.0
 51
0.0
 71
     0
 72
   100
 73
     1
 74
     1
 75
     0
 76
     0
 77
     0
 78
     0
  0
ENDTAB
  0
TABLE
  2
LTYPE
  5
1B
330
0
100
AcDbSymbolTable
 70
     1
  0
LTYPE
  5
1C
330
1B
100
AcDbSymbolTableRecord
100
AcDbLinetypeTableRecord
  2
BYBLOCK
 70
     0
  3

 72
    65
 73
     0
 40
0.0
  0
LTYPE
  5
1D
330
1B
100
AcDbSymbolTableRecord
100
AcDbLinetypeTableRecord
  2
BYLAYER
 70
     0
  3

 72
    65
 73
     0
 40
0.0
  0
LTYPE
  5
C
330
1B
100
AcDbSymbolTableRecord
100
AcDbLinetypeTableRecord
  2
CONTINUOUS
 70
     0
  3
Solid line
 72
    65
 73
     0
 40
0.0
  0
ENDTAB
  0
TABLE
  2
LAYER
  5
17
330
0
100
AcDbSymbolTable
 70
     2
  0
LAYER
  5
7
330
17
100
AcDbSymbolTableRecord
100
AcDbLayerTableRecord
  2
0
 70
     0
 62
     7
  6
CONTINUOUS
  0
LAYER
  5
35
330
17
100
AcDbSymbolTableRecord
100
AcDbLayerTableRecord
  2
OUTLINE
 70
     0
 62
     7
  6
CONTINUOUS
  0
ENDTAB
  0
TABLE
  2
STYLE
  5
18
330
0
100
AcDbSymbolTable
 70
     1
  0
STYLE
  5
19
330
18
100
AcDbSymbolTableRecord
100
AcDbTextStyleTableRecord
  2
STANDARD
 70
     0
 40
0.0
 41
1.0
 50
0.0
 71
     0
 42
0.2
  3
romans.shx
  4
bigfont.shx
  0
ENDTAB
  0
TABLE
  2
VIEW
  5
1E
330
0
100
AcDbSymbolTable
 70
     0
  0
ENDTAB
  0
TABLE
  2
UCS
  5
1F
330
0
100
AcDbSymbolTable
 70
     0
  0
ENDTAB
  0
TABLE
  2
APPID
  5
22
330
0
100
AcDbSymbolTable
 70
     2
  0
APPID
  5
B
330
22
100
AcDbSymbolTableRecord
100
AcDbRegAppTableRecord
  2
ACAD
 70
     0
  0
APPID
  5
10
330
22
100
AcDbSymbolTableRecord
100
AcDbRegAppTableRecord
  2
ACAD_PSEXT
 70
     0
  0
ENDTAB
  0
TABLE
  2
DIMSTYLE
  5
23
330
0
100
AcDbSymbolTable
 70
     1
  0
DIMSTYLE
105
24
330
23
100
AcDbSymbolTableRecord
100
AcDbDimStyleTableRecord
  2
G1
 70
     0
  3

  4

  5
OPEN
  6

  7

 40
3.0
 41
2.0
 42
2.0
 43
7.0
 44
0.5
 45
0.0
 46
0.0
 47
0.0
 48
0.0
140
2.0
141
0.09
142
0.0
143
0.03937
144
1.0
145
0.0
146
1.0
147
0.8
 71
     0
 72
     0
 73
     0
 74
     0
 75
     0
 76
     0
 77
     1
 78
     8
170
     0
171
     2
172
     1
173
     0
174
     0
175
     0
176
     0
177
     0
178
     7
270
     2
271
     2
272
     2
273
     2
274
     2
340
19
275
     0
280
     0
281
     0
282
     0
283
     1
284
     0
285
     0
286
     0
287
     3
288
     0
  0
ENDTAB
  0
TABLE
  2
BLOCK_RECORD
  5
1
330
0
100
AcDbSymbolTable
 70
     1
  0
BLOCK_RECORD
  5
2
102
{ACAD_XDICTIONARY
360
3
102
}
330
1
100
AcDbSymbolTableRecord
100
AcDbBlockTableRecord
  2
*MODEL_SPACE
  0
BLOCK_RECORD
  5
11
102
{ACAD_XDICTIONARY
360
12
102
}
330
1
100
AcDbSymbolTableRecord
100
AcDbBlockTableRecord
  2
*PAPER_SPACE
  0
BLOCK_RECORD
  5
25
330
1
100
AcDbSymbolTableRecord
100
AcDbBlockTableRecord
  2
_OPEN
  0
ENDTAB
  0
ENDSEC
  0
SECTION
  2
BLOCKS
  0
BLOCK
  5
6
330
2
100
AcDbEntity
  8
0
100
AcDbBlockBegin
  2
*MODEL_SPACE
 70
     0
 10
0.0
 20
0.0
 30
0.0
  3
*MODEL_SPACE
  1

  0
ENDBLK
  5
D
330
2
100
AcDbEntity
  8
0
100
AcDbBlockEnd
  0
BLOCK
  5
14
330
11
100
AcDbEntity
 67
     1
  8
0
100
AcDbBlockBegin
  2
*PAPER_SPACE
 70
     0
 10
0.0
 20
0.0
 30
0.0
  3
*PAPER_SPACE
  1

  0
ENDBLK
  5
15
330
11
100
AcDbEntity
 67
     1
  8
0
100
AcDbBlockEnd
  0
BLOCK
  5
26
330
25
100
AcDbEntity
  8
0
100
AcDbBlockBegin
  2
_OPEN
 70
     0
 10
0.0
 20
0.0
 30
0.0
  3
_OPEN
  1

  0
LINE
  5
27
330
25
100
AcDbEntity
  8
0
 62
     0
100
AcDbLine
 10
-0.9659259999999999
 20
0.258819
 30
0.0
 11
0.0
 21
0.0
 31
0.0
  0
LINE
  5
28
330
25
100
AcDbEntity
  8
0
 62
     0
100
AcDbLine
 10
0.0
 20
0.0
 30
0.0
 11
-0.9659259999999999
 21
-0.258819
 31
0.0
  0
LINE
  5
29
330
25
100
AcDbEntity
  8
0
 62
     0
100
AcDbLine
 10
0.0
 20
0.0
 30
0.0
 11
-1.0
 21
0.0
 31
0.0
  0
ENDBLK
  5
2A
330
25
100
AcDbEntity
  8
0
100
AcDbBlockEnd
  0
ENDSEC
  0
SECTION
  2
ENTITIES
  0
ARC
  5
34
330
2
100
AcDbEntity
  8
OUTLINE
100
AcDbCircle
 10
620.4413551347236
 20
737.8302580186669
 30
0.0
 40
21.407267
100
AcDbArc
 50
299.435895000006
 51
142.5127242042941
  0
LINE
  5
36
330
2
100
AcDbEntity
  8
OUTLINE
100
AcDbLine
 10
599.9413551347237
 20
724.8407420538057
 30
0.0
 11
599.9413551347237
 21
712.8302580186669
 31
0.0
  0
LINE
  5
37
330
2
100
AcDbEntity
  8
OUTLINE
100
AcDbLine
 10
629.9413551347237
 20
712.8302580186669
 30
0.0
 11
629.9413551347237
 21
717.4320400186667
 31
0.0
  0
ARC
  5
38
330
2
100
AcDbEntity
  8
OUTLINE
100
AcDbCircle
 10
631.9559761347237
 20
717.4342240186667
 30
0.0
 40
2.014622
100
AcDbArc
 50
119.564833000003
 51
180.0621230000006
  0
ARC
  5
39
330
2
100
AcDbEntity
  8
OUTLINE
  6
CONTINUOUS
100
AcDbCircle
 10
437.2742588899438
 20
737.8302580186669
 30
0.0
 40
11.60999175522023
100
AcDbArc
 50
96.60843681196288
 51
263.391563188037
  0
LINE
  5
3A
330
2
100
AcDbEntity
  8
OUTLINE
  6
CONTINUOUS
100
AcDbLine
 10
435.9381412915728
 20
749.3631110186668
 30
0.0
 11
509.9413551347233
 21
749.8302581017427
 31
0.0
  0
LINE
  5
3B
330
2
100
AcDbEntity
  8
OUTLINE
  6
CONTINUOUS
100
AcDbLine
 10
435.9381412915728
 20
726.2974050186669
 30
0.0
 11
509.9413551347233
 21
725.8302579355913
 31
0.0
  0
LINE
  5
3C
330
2
100
AcDbEntity
  8
OUTLINE
  6
CONTINUOUS
100
AcDbLine
 10
509.9413551347233
 20
749.8302581017427
 30
0.0
 11
620.4413551347236
 21
751.0451637121566
 31
0.0
  0
LINE
  5
3D
330
2
100
AcDbEntity
  8
OUTLINE
  6
CONTINUOUS
100
AcDbLine
 10
509.9413551347233
 20
725.8302579355913
 30
0.0
 11
620.4413551347236
 21
724.615352325177
 31
0.0
  0
ARC
  5
3E
330
2
100
AcDbEntity
  8
OUTLINE
  6
CONTINUOUS
100
AcDbCircle
 10
620.4413551347236
 20
737.8302580186669
 30
0.0
 40
14.3667933816083
100
AcDbArc
 50
246.2621693888034
 51
113.7378306111963
  0
ARC
  5
3F
330
2
100
AcDbEntity
  8
OUTLINE
  6
CONTINUOUS
100
AcDbCircle
 10
620.4413551347236
 20
737.8302580186669
 30
0.0
 40
17.49999999999976
100
AcDbArc
 50
228.4034744293112
 51
131.5965255706887
  0
ARC
  5
40
330
2
100
AcDbEntity
  8
OUTLINE
  6
CONTINUOUS
100
AcDbCircle
 10
620.4413551347236
 20
737.8302580186669
 30
0.0
 40
23.0
100
AcDbArc
 50
294.3961652827506
 51
145.5634480214934
  0
LINE
  5
41
330
2
100
AcDbEntity
  8
OUTLINE
  6
CONTINUOUS
 62
     7
100
AcDbLine
 10
599.9413551347235
 20
711.3302580186669
 30
0.0
 11
599.9413551347235
 21
706.7638160595085
 31
0.0
  0
ARC
  5
42
330
2
100
AcDbEntity
  8
OUTLINE
  6
CONTINUOUS
 62
     7
100
AcDbCircle
 10
629.4413551347235
 20
711.3302580186669
 30
0.0
 40
0.5
100
AcDbArc
 50
0.0
 51
90.0
  0
ARC
  5
43
330
2
100
AcDbEntity
  8
OUTLINE
  6
CONTINUOUS
 62
     7
100
AcDbCircle
 10
635.7292966487545
 20
675.8130252640158
 30
0.0
 40
15.48401776658159
100
AcDbArc
 50
114.8662386266156
 51
120.839927563521
  0
ARC
  5
44
330
2
100
AcDbEntity
  8
OUTLINE
  6
CONTINUOUS
 62
     7
100
AcDbCircle
 10
600.4413551347234
 20
711.3302580186669
 30
0.0
 40
0.5
100
AcDbArc
 50
90.0
 51
180.0
  0
ARC
  5
45
330
2
100
AcDbEntity
  8
OUTLINE
  6
CONTINUOUS
 62
     7
100
AcDbCircle
 10
621.9413551347236
 20
701.8802580186667
 30
0.0
 40
14.05
100
AcDbArc
 50
270.0
 51
294.6027270000012
  0
ARC
  5
46
330
2
100
AcDbEntity
  8
OUTLINE
  6
CONTINUOUS
 62
     7
100
AcDbCircle
 10
607.9413551347236
 20
701.8802580186667
 30
0.0
 40
14.05
100
AcDbArc
 50
243.3490271710256
 51
270.0
  0
LINE
  5
47
330
2
100
AcDbEntity
  8
OUTLINE
  6
CONTINUOUS
100
AcDbLine
 10
607.9413551347236
 20
687.8302580186669
 30
0.0
 11
621.9413551347236
 21
687.8302580186669
 31
0.0
  0
LINE
  5
48
330
2
100
AcDbEntity
  8
OUTLINE
  6
CONTINUOUS
 62
     7
100
AcDbLine
 10
600.4413551347234
 20
711.8302580186669
 30
0.0
 11
629.4413551347235
 21
711.8302580186669
 31
0.0
  0
LINE
  5
49
330
2
100
AcDbEntity
  8
OUTLINE
  6
CONTINUOUS
 62
     7
100
AcDbLine
 10
599.9413551347235
 20
714.0371660186666
 30
0.0
 11
599.9413551347235
 21
712.8302580186669
 31
0.0
  0
LINE
  5
4A
330
2
100
AcDbEntity
  8
OUTLINE
  6
CONTINUOUS
 62
     7
100
AcDbLine
 10
629.9413551347234
 20
712.8302580186669
 30
0.0
 11
629.9413551347234
 21
717.0780260186667
 31
0.0
  0
LINE
  5
4B
330
2
100
AcDbEntity
  8
OUTLINE
  6
CONTINUOUS
 62
     7
100
AcDbLine
 10
628.1913551347236
 20
711.8302580186669
 30
0.0
 11
628.1913551347236
 21
712.3302580186669
 31
0.0
  0
LINE
  5
4C
330
2
100
AcDbEntity
  8
OUTLINE
  6
CONTINUOUS
 62
     7
100
AcDbLine
 10
601.6913551347236
 20
712.3302580186669
 30
0.0
 11
601.6913551347236
 21
711.8302580186669
 31
0.0
  0
ARC
  5
4D
330
2
100
AcDbEntity
  8
OUTLINE
  6
CONTINUOUS
 62
     7
100
AcDbCircle
 10
629.4413551347235
 20
712.8302580186669
 30
0.0
 40
0.5
100
AcDbArc
 50
270.0
 51
0.0
  0
LINE
  5
4E
330
2
100
AcDbEntity
  8
OUTLINE
  6
CONTINUOUS
 62
     7
100
AcDbLine
 10
599.9413551347235
 20
712.8302580186669
 30
0.0
 11
629.9413551347234
 21
712.8302580186669
 31
0.0
  0
ARC
  5
4F
330
2
100
AcDbEntity
  8
OUTLINE
  6
CONTINUOUS
 62
     7
100
AcDbCircle
 10
600.4413551347234
 20
712.8302580186669
 30
0.0
 40
0.5
100
AcDbArc
 50
180.0
 51
270.0
  0
LINE
  5
50
330
2
100
AcDbEntity
  8
OUTLINE
  6
CONTINUOUS
 62
     7
100
AcDbLine
 10
629.4413551347235
 20
712.3302580186669
 30
0.0
 11
600.4413551347234
 21
712.3302580186669
 31
0.0
  0
LINE
  5
51
330
2
100
AcDbEntity
  8
OUTLINE
  6
CONTINUOUS
 62
     7
100
AcDbLine
 10
629.9413551347234
 20
711.3302580186669
 30
0.0
 11
599.9413551347235
 21
711.3302580186669
 31
0.0
  0
ARC
  5
52
330
2
100
AcDbEntity
  8
OUTLINE
100
AcDbCircle
 10
601.3306041347235
 20
687.4391260186667
 30
0.0
 40
1.830938
100
AcDbArc
 50
65.49300600000103
 51
99.36608499999737
  0
ARC
  5
53
330
2
100
AcDbEntity
  8
OUTLINE
100
AcDbCircle
 10
578.2397761347234
 20
771.5181450186666
 30
0.0
 40
69.685119
100
AcDbArc
 50
270.5686936132378
 51
286.9224433330865
  0
LINE
  5
54
330
2
100
AcDbEntity
  8
OUTLINE
100
AcDbLine
 10
577.9413551347236
 20
700.8365078350887
 30
0.0
 11
577.9413551347236
 21
688.8384111413678
 31
0.0
  0
LINE
  5
55
330
2
100
AcDbEntity
  8
OUTLINE
100
AcDbLine
 10
614.9413551347235
 20
690.5841349896761
 30
0.0
 11
589.9944531347236
 21
688.2189910186666
 31
0.0
  0
LINE
  5
56
330
2
100
AcDbEntity
  8
OUTLINE
100
AcDbLine
 10
589.9944531347236
 20
688.2189910186666
 30
0.0
 11
578.9758203929667
 21
687.8390052448601
 31
0.0
  0
LINE
  5
57
330
2
100
AcDbEntity
  8
OUTLINE
  6
CONTINUOUS
 62
     7
100
AcDbLine
 10
629.9413551347234
 20
711.3302580186669
 30
0.0
 11
629.9413551347234
 21
691.1446860186666
 31
0.0
  0
ARC
  5
58
330
2
100
AcDbEntity
  8
OUTLINE
  6
CONTINUOUS
 62
     7
100
AcDbCircle
 10
628.4413551347234
 20
691.1446860186666
 30
0.0
 40
1.5
100
AcDbArc
 50
301.193387
 51
0.0
  0
ARC
  5
59
330
2
100
AcDbEntity
  8
OUTLINE
100
AcDbCircle
 10
578.9413551347236
 20
700.8365078350887
 30
0.0
 40
1.0
100
AcDbArc
 50
90.56869361323789
 51
180.0
  0
ARC
  5
5A
330
2
100
AcDbEntity
  8
OUTLINE
100
AcDbCircle
 10
578.9413551347236
 20
688.8384111413678
 30
0.0
 40
1.0
100
AcDbArc
 50
180.0
 51
271.9751049915848
  0
ARC
  5
5B
330
2
100
AcDbEntity
  8
OUTLINE
  6
CONTINUOUS
100
AcDbCircle
 10
597.9413551347236
 20
706.7638160595085
 30
0.0
 40
2.0
100
AcDbArc
 50
286.9224433330865
 51
0.0
  0
POINT
  5
72
330
2
100
AcDbEntity
  8
0
  6
CONTINUOUS
 62
     5
100
AcDbPoint
 10
620.4413551347236
 20
737.8302580186669
 30
0.0
  0
ENDSEC
  0
SECTION
  2
OBJECTS
  0
DICTIONARY
  5
A
330
0
100
AcDbDictionary
  3
ACAD_COLOR
350
30
  3
ACAD_GROUP
350
2C
  3
ACAD_LAYOUT
350
F
  3
ACAD_MATERIAL
350
2F
  3
ACAD_MLINESTYLE
350
2D
  3
ACAD_PLOTSETTINGS
350
2E
  3
ACAD_PLOTSTYLENAME
350
9
  3
ACAD_TABLESTYLE
350
31
  3
ACDBVARIABLEDICTIONARY
350
5D
  3
ACDBHEADERROUNDTRIPXREC
350
85
  0
DICTIONARY
  5
3
330
2
100
AcDbDictionary
280
     1
  3
ACAD_LAYOUTSELFREF
360
A6
  3
ACAD_SORTENTS
360
5C
  0
DICTIONARY
  5
12
330
11
100
AcDbDictionary
280
     1
  3
ACAD_LAYOUTSELFREF
360
A7
  0
DICTIONARY
  5
30
102
{ACAD_REACTORS
330
A
102
}
330
A
100
AcDbDictionary
  0
DICTIONARY
  5
2C
102
{ACAD_REACTORS
330
A
102
}
330
A
100
AcDbDictionary
  0
DICTIONARY
  5
F
102
{ACAD_REACTORS
330
A
102
}
330
A
100
AcDbDictionary
  0
DICTIONARY
  5
2F
102
{ACAD_REACTORS
330
A
102
}
330
A
100
AcDbDictionary
  0
DICTIONARY
  5
2D
102
{ACAD_REACTORS
330
A
102
}
330
A
100
AcDbDictionary
  3
STANDARD
350
32
  0
DICTIONARY
  5
2E
102
{ACAD_REACTORS
330
A
102
}
330
A
100
AcDbDictionary
  0
ACDBDICTIONARYWDFLT
  5
9
102
{ACAD_REACTORS
330
A
102
}
330
A
100
AcDbDictionary
281
     1
  3
Normal
350
8
100
AcDbDictionaryWithDefault
340
8
1001
ACAD
1000
TREAT_AS_HARD
1070
     0
  0
DICTIONARY
  5
31
102
{ACAD_REACTORS
330
A
102
}
330
A
100
AcDbDictionary
  3
STANDARD
350
33
  0
DICTIONARY
  5
5D
102
{ACAD_REACTORS
330
A
102
}
330
A
100
AcDbDictionary
  3
CTABLESTYLE
350
5E
  3
DIMASSOC
350
6C
  3
HIDETEXT
350
6B
  3
PROJECTNAME
350
6D
  0
DICTIONARY
  5
85
102
{ACAD_REACTORS
330
A
102
}
330
A
100
AcDbDictionary
  3
TSTACKALIGN
350
86
  3
TSTACKSIZE
350
87
  3
HYPERLINKBASE
350
88
  3
STYLESHEET
350
89
  3
LAYOUTDICT
350
8A
  3
PLOTSETDICT
350
8B
  3
PLOTSTYLNAMDICT
350
8C
  3
LWETCUNION
350
8D
  3
INSUNITS
350
8E
  3
CEPSNTYPE
350
8F
  3
FINGERPRINTGUID
350
90
  3
VERSIONGUID
350
91
  3
PSVPSCALE
350
92
  3
DIMSTYLEDATA
350
93
  3
PUCSORTHOREF
350
94
  3
PUCSORTHOVIEW
350
95
  3
PUCSBASE
350
96
  3
PUCSORGTOP
350
97
  3
PUCSORGBOTTOM
350
98
  3
PUCSORGLEFT
350
99
  3
PUCSORGRIGHT
350
9A
  3
PUCSORGFRONT
350
9B
  3
PUCSORGBACK
350
9C
  3
UCSORTHOREF
350
9D
  3
UCSORTHOVIEW
350
9E
  3
UCSBASE
350
9F
  3
UCSORGTOP
350
A0
  3
UCSORGBOTTOM
350
A1
  3
UCSORGLEFT
350
A2
  3
UCSORGRIGHT
350
A3
  3
UCSORGFRONT
350
A4
  3
UCSORGBACK
350
A5
  0
XRECORD
  5
A6
102
{ACAD_REACTORS
330
3
102
}
330
3
100
AcDbXrecord
340
2
  0
SORTENTSTABLE
  5
5C
102
{ACAD_REACTORS
330
3
102
}
330
3
100
AcDbSortentsTable
330
2
  0
XRECORD
  5
A7
102
{ACAD_REACTORS
330
12
102
}
330
12
100
AcDbXrecord
340
11
  0
MLINESTYLE
  5
32
102
{ACAD_REACTORS
330
2D
102
}
330
2D
100
AcDbMlineStyle
  2
STANDARD
 70
     0
  3

 62
   256
 51
90.0
 52
90.0
 71
     2
 49
0.5
 62
   256
  6
BYLAYER
 49
-0.5
 62
   256
  6
BYLAYER
  0
ACDBPLACEHOLDER
  5
8
102
{ACAD_REACTORS
330
9
102
}
330
9
100
AcDbPlaceHolder
280
     0
  0
ACAD_PROXY_OBJECT
  5
33
102
{ACAD_REACTORS
330
31
102
}
330
31
100
AcDbProxyObject
 90
      499
 91
      506
 93
     1841
310
4214DD185B99185C9928B81E85EB51B8AE3F2E07A17AD46E2B8FC02B5E8DC0F42B1CFD028000000C1008070000C3001FDFF8000000C1003FBFF000000182007F7FE00000030400FEFFC00000060801FDFF8000000C1003FBFF00000018200000000000000681FA0B0000001820100E000186003FBFF000000182007F7FE000
310
00030400FEFFC00000060801FDFF8000000C1003FBFF000000182007F7FE000000304000AD7A3703D0AC73F4160000003040201C00030C007F7FE00000030400FEFFC00000060801FDFF8000000C1003FBFF000000182007F7FE00000030400FEFFC000000608008
340
19
340
19
340
19
 94
        0
1001
ACAD
1000
AcadProxyRoundTripData
1071
      504
1071
   393239
1070
     0
  0
DICTIONARYVAR
  5
5E
102
{ACAD_REACTORS
330
5D
102
}
330
5D
100
DictionaryVariables
280
     0
  1
STANDARD
  0
DICTIONARYVAR
  5
6C
102
{ACAD_REACTORS
330
5D
102
}
330
5D
100
DictionaryVariables
280
     0
  1
1
  0
DICTIONARYVAR
  5
6B
102
{ACAD_REACTORS
330
5D
102
}
330
5D
100
DictionaryVariables
280
     0
  1
1
  0
DICTIONARYVAR
  5
6D
102
{ACAD_REACTORS
330
5D
102
}
330
5D
100
DictionaryVariables
280
     0
  1

  0
XRECORD
  5
86
102
{ACAD_REACTORS
330
85
102
}
330
85
100
AcDbXrecord
 90
        1
  0
XRECORD
  5
87
102
{ACAD_REACTORS
330
85
102
}
330
85
100
AcDbXrecord
 90
       70
  0
XRECORD
  5
88
102
{ACAD_REACTORS
330
85
102
}
330
85
100
AcDbXrecord
  1

  0
XRECORD
  5
89
102
{ACAD_REACTORS
330
85
102
}
330
85
100
AcDbXrecord
  1

  0
XRECORD
  5
8A
102
{ACAD_REACTORS
330
85
102
}
330
85
100
AcDbXrecord
340
F
  0
XRECORD
  5
8B
102
{ACAD_REACTORS
330
85
102
}
330
85
100
AcDbXrecord
340
2E
  0
XRECORD
  5
8C
102
{ACAD_REACTORS
330
85
102
}
330
85
100
AcDbXrecord
340
9
  0
XRECORD
  5
8D
102
{ACAD_REACTORS
330
85
102
}
330
85
100
AcDbXrecord
 90
    10781
  0
XRECORD
  5
8E
102
{ACAD_REACTORS
330
85
102
}
330
85
100
AcDbXrecord
 90
        0
  0
XRECORD
  5
8F
102
{ACAD_REACTORS
330
85
102
}
330
85
100
AcDbXrecord
 90
        0
  0
XRECORD
  5
90
102
{ACAD_REACTORS
330
85
102
}
330
85
100
AcDbXrecord
  1
{C4A38191-D1CB-444D-93A2-CA73BDF619D9}
  0
XRECORD
  5
91
102
{ACAD_REACTORS
330
85
102
}
330
85
100
AcDbXrecord
  1
{E74FBF50-6491-4D9D-A99B-CDE67D0BC850}
  0
XRECORD
  5
92
102
{ACAD_REACTORS
330
85
102
}
330
85
100
AcDbXrecord
 40
0.0
  0
XRECORD
  5
93
102
{ACAD_REACTORS
330
85
102
}
330
85
100
AcDbXrecord
1000
DSTYLE
1002
{
1070
    79
 70
     2
1070
   179
 70
     1
1070
   341
340
25
1070
   342
340
25
1002
}
  0
XRECORD
  5
94
102
{ACAD_REACTORS
330
85
102
}
330
85
100
AcDbXrecord
340
0
  0
XRECORD
  5
95
102
{ACAD_REACTORS
330
85
102
}
330
85
100
AcDbXrecord
 70
     0
  0
XRECORD
  5
96
102
{ACAD_REACTORS
330
85
102
}
330
85
100
AcDbXrecord
340
0
  0
XRECORD
  5
97
102
{ACAD_REACTORS
330
85
102
}
330
85
100
AcDbXrecord
 10
0.0
 20
0.0
 30
0.0
  0
XRECORD
  5
98
102
{ACAD_REACTORS
330
85
102
}
330
85
100
AcDbXrecord
 10
0.0
 20
0.0
 30
0.0
  0
XRECORD
  5
99
102
{ACAD_REACTORS
330
85
102
}
330
85
100
AcDbXrecord
 10
0.0
 20
0.0
 30
0.0
  0
XRECORD
  5
9A
102
{ACAD_REACTORS
330
85
102
}
330
85
100
AcDbXrecord
 10
0.0
 20
0.0
 30
0.0
  0
XRECORD
  5
9B
102
{ACAD_REACTORS
330
85
102
}
330
85
100
AcDbXrecord
 10
0.0
 20
0.0
 30
0.0
  0
XRECORD
  5
9C
102
{ACAD_REACTORS
330
85
102
}
330
85
100
AcDbXrecord
 10
0.0
 20
0.0
 30
0.0
  0
XRECORD
  5
9D
102
{ACAD_REACTORS
330
85
102
}
330
85
100
AcDbXrecord
340
0
  0
XRECORD
  5
9E
102
{ACAD_REACTORS
330
85
102
}
330
85
100
AcDbXrecord
 70
     0
  0
XRECORD
  5
9F
102
{ACAD_REACTORS
330
85
102
}
330
85
100
AcDbXrecord
340
0
  0
XRECORD
  5
A0
102
{ACAD_REACTORS
330
85
102
}
330
85
100
AcDbXrecord
 10
0.0
 20
0.0
 30
0.0
  0
XRECORD
  5
A1
102
{ACAD_REACTORS
330
85
102
}
330
85
100
AcDbXrecord
 10
0.0
 20
0.0
 30
0.0
  0
XRECORD
  5
A2
102
{ACAD_REACTORS
330
85
102
}
330
85
100
AcDbXrecord
 10
0.0
 20
0.0
 30
0.0
  0
XRECORD
  5
A3
102
{ACAD_REACTORS
330
85
102
}
330
85
100
AcDbXrecord
 10
0.0
 20
0.0
 30
0.0
  0
XRECORD
  5
A4
102
{ACAD_REACTORS
330
85
102
}
330
85
100
AcDbXrecord
 10
0.0
 20
0.0
 30
0.0
  0
XRECORD
  5
A5
102
{ACAD_REACTORS
330
85
102
}
330
85
100
AcDbXrecord
 10
0.0
 20
0.0
 30
0.0
  0
ENDSEC
  0
EOF
