  0
SECTION
  2
HEADER
  9
$ACADVER
  1
AC1009
  9
$INSBASE
 10
226.47595551536901
 20
33.561000319553841
 30
0.0
  9
$EXTMIN
 10
199.2887841770814
 20
33.561000319553841
 30
0.0
  9
$EXTMAX
 10
288.76154763078512
 20
275.3074583195538
 30
0.0
  9
$LIMMIN
 10
0.0
 20
0.0
  9
$LIMMAX
 10
420.0
 20
297.0
  9
$ORTHOMODE
 70
     0
  9
$REGENMODE
 70
     1
  9
$FILLMODE
 70
     1
  9
$QTEXTMODE
 70
     0
  9
$MIRRTEXT
 70
     1
  9
$DRAGMODE
 70
     2
  9
$LTSCALE
 40
1.0
  9
$OSMODE
 70
    55
  9
$ATTMODE
 70
     1
  9
$TEXTSIZE
 40
2.5
  9
$TRACEWID
 40
1.0
  9
$TEXTSTYLE
  7
STANDARD
  9
$CLAYER
  8
0
  9
$CELTYPE
  6
BYLAYER
  9
$CECOLOR
 62
   256
  9
$DIMSCALE
 40
1.0
  9
$DIMASZ
 40
2.5
  9
$DIMEXO
 40
0.625
  9
$DIMDLI
 40
3.75
  9
$DIMRND
 40
0.0
  9
$DIMDLE
 40
0.0
  9
$DIMEXE
 40
1.25
  9
$DIMTP
 40
0.0
  9
$DIMTM
 40
0.0
  9
$DIMTXT
 40
2.5
  9
$DIMCEN
 40
2.5
  9
$DIMTSZ
 40
0.0
  9
$DIMTOL
 70
     0
  9
$DIMLIM
 70
     0
  9
$DIMTIH
 70
     0
  9
$DIMTOH
 70
     0
  9
$DIMSE1
 70
     0
  9
$DIMSE2
 70
     0
  9
$DIMTAD
 70
     1
  9
$DIMZIN
 70
     8
  9
$DIMBLK
  1

  9
$DIMASO
 70
     1
  9
$DIMSHO
 70
     1
  9
$DIMPOST
  1

  9
$DIMAPOST
  1

  9
$DIMALT
 70
     0
  9
$DIMALTD
 70
     3
  9
$DIMALTF
 40
0.03937007874016
  9
$DIMLFAC
 40
1.0
  9
$DIMTOFL
 70
     1
  9
$DIMTVP
 40
0.0
  9
$DIMTIX
 70
     0
  9
$DIMSOXD
 70
     0
  9
$DIMSAH
 70
     0
  9
$DIMBLK1
  1

  9
$DIMBLK2
  1

  9
$DIMSTYLE
  2
ISO-25
  9
$DIMCLRD
 70
     0
  9
$DIMCLRE
 70
     0
  9
$DIMCLRT
 70
     0
  9
$DIMTFAC
 40
1.0
  9
$DIMGAP
 40
0.625
  9
$LUNITS
 70
     2
  9
$LUPREC
 70
     4
  9
$SKETCHINC
 40
1.0
  9
$FILLETRAD
 40
10.0
  9
$AUNITS
 70
     0
  9
$AUPREC
 70
     0
  9
$MENU
  1
.
  9
$ELEVATION
 40
0.0
  9
$PELEVATION
 40
0.0
  9
$THICKNESS
 40
0.0
  9
$LIMCHECK
 70
     0
  9
$BLIPMODE
 70
     0
  9
$CHAMFERA
 40
10.0
  9
$CHAMFERB
 40
10.0
  9
$SKPOLY
 70
     0
  9
$TDCREATE
 40
2453440.8898954159
  9
$TDUPDATE
 40
2453440.8921848838
  9
$TDINDWG
 40
0.0022921875
  9
$TDUSRTIMER
 40
0.0022921875
  9
$USRTIMER
 70
     1
  9
$ANGBASE
 50
0.0
  9
$ANGDIR
 70
     0
  9
$PDMODE
 70
     0
  9
$PDSIZE
 40
0.0
  9
$PLINEWID
 40
0.0
  9
$COORDS
 70
     1
  9
$SPLFRAME
 70
     0
  9
$SPLINETYPE
 70
     6
  9
$SPLINESEGS
 70
     8
  9
$ATTDIA
 70
     0
  9
$ATTREQ
 70
     1
  9
$HANDLING
 70
 10241
  9
$HANDSEED
  5
5E4
  9
$SURFTAB1
 70
     6
  9
$SURFTAB2
 70
     6
  9
$SURFTYPE
 70
     6
  9
$SURFU
 70
     6
  9
$SURFV
 70
     6
  9
$UCSNAME
  2

  9
$UCSORG
 10
0.0
 20
0.0
 30
0.0
  9
$UCSXDIR
 10
1.0
 20
0.0
 30
0.0
  9
$UCSYDIR
 10
0.0
 20
1.0
 30
0.0
  9
$PUCSNAME
  2

  9
$PUCSORG
 10
0.0
 20
0.0
 30
0.0
  9
$PUCSXDIR
 10
1.0
 20
0.0
 30
0.0
  9
$PUCSYDIR
 10
0.0
 20
1.0
 30
0.0
  9
$USERI1
 70
     0
  9
$USERI2
 70
     0
  9
$USERI3
 70
     0
  9
$USERI4
 70
     0
  9
$USERI5
 70
     0
  9
$USERR1
 40
0.0
  9
$USERR2
 40
0.0
  9
$USERR3
 40
0.0
  9
$USERR4
 40
0.0
  9
$USERR5
 40
0.0
  9
$WORLDVIEW
 70
     1
  9
$SHADEDGE
 70
     3
  9
$SHADEDIF
 70
    70
  9
$TILEMODE
 70
     1
  9
$MAXACTVP
 70
    64
  9
$PLIMCHECK
 70
     0
  9
$PEXTMIN
 10
1.0000000000000000E+020
 20
1.0000000000000000E+020
 30
1.0000000000000000E+020
  9
$PEXTMAX
 10
-1.0000000000000000E+020
 20
-1.0000000000000000E+020
 30
-1.0000000000000000E+020
  9
$PLIMMIN
 10
0.0
 20
0.0
  9
$PLIMMAX
 10
420.0
 20
297.0
  9
$UNITMODE
 70
     0
  9
$VISRETAIN
 70
     1
  9
$PLINEGEN
 70
     0
  9
$PSLTSCALE
 70
     1
  0
ENDSEC
  0
SECTION
  2
TABLES
  0
TABLE
  2
VPORT
 70
     4
  0
VPORT
  2
*ACTIVE
 70
     0
 10
0.0
 20
0.0
 11
1.0
 21
1.0
 12
282.12024048096191
 22
148.5
 13
0.0
 23
0.0
 14
10.0
 24
10.0
 15
10.0
 25
10.0
 16
0.0
 26
0.0
 36
1.0
 17
0.0
 27
0.0
 37
0.0
 40
297.0
 41
1.899799599198396
 42
50.0
 43
0.0
 44
0.0
 50
0.0
 51
0.0
 71
     0
 72
   100
 73
     1
 74
     3
 75
     0
 76
     0
 77
     0
 78
     0
  0
ENDTAB
  0
TABLE
  2
LTYPE
 70
     1
  0
LTYPE
  2
CONTINUOUS
 70
     0
  3
Solid line
 72
    65
 73
     0
 40
0.0
  0
ENDTAB
  0
TABLE
  2
LAYER
 70
     2
  0
LAYER
  2
0
 70
     0
 62
     7
  6
CONTINUOUS
  0
LAYER
  2
M1
 70
     0
 62
     3
  6
CONTINUOUS
  0
ENDTAB
  0
TABLE
  2
STYLE
 70
     1
  0
STYLE
  2
STANDARD
 70
     0
 40
0.0
 41
1.0
 50
0.0
 71
     0
 42
2.5
  3
romant.shx
  4
bigfont.shx
  0
ENDTAB
  0
TABLE
  2
VIEW
 70
     0
  0
ENDTAB
  0
TABLE
  2
UCS
 70
     0
  0
ENDTAB
  0
TABLE
  2
APPID
 70
     1
  0
APPID
  2
ACAD
 70
     0
  0
ENDTAB
  0
TABLE
  2
DIMSTYLE
 70
     2
  0
DIMSTYLE
  2
ISO-25
 70
     0
  3

  4

  5

  6

  7

 40
1.0
 41
2.5
 42
0.625
 43
3.75
 44
1.25
 45
0.0
 46
0.0
 47
0.0
 48
0.0
140
2.5
141
2.5
142
0.0
143
0.03937007874016
144
1.0
145
0.0
146
1.0
147
0.625
 71
     0
 72
     0
 73
     0
 74
     0
 75
     0
 76
     0
 77
     1
 78
     8
170
     0
171
     3
172
     1
173
     0
174
     0
175
     0
176
     0
177
     0
178
     0
  0
DIMSTYLE
  2
STANDARD
 70
     0
  3

  4

  5

  6

  7

 40
1.0
 41
0.18
 42
0.0625
 43
0.38
 44
0.18
 45
0.0
 46
0.0
 47
0.0
 48
0.0
140
0.18
141
0.09
142
0.0
143
25.399999999999999
144
1.0
145
0.0
146
1.0
147
0.09
 71
     0
 72
     0
 73
     1
 74
     1
 75
     0
 76
     0
 77
     0
 78
     0
170
     0
171
     2
172
     0
173
     0
174
     0
175
     0
176
     0
177
     0
178
     0
  0
ENDTAB
  0
ENDSEC
  0
SECTION
  2
BLOCKS
  0
BLOCK
  8
0
  2
$MODEL_SPACE
 70
     0
 10
0.0
 20
0.0
 30
0.0
  3
$MODEL_SPACE
  1

  0
ENDBLK
  5
21
  8
0
  0
BLOCK
 67
     1
  8
0
  2
$PAPER_SPACE
 70
     0
 10
0.0
 20
0.0
 30
0.0
  3
$PAPER_SPACE
  1

  0
ENDBLK
  5
1D
 67
     1
  8
0
  0
BLOCK
  8
M1
  2
FILL0
 70
     0
 10
0.0
 20
0.0
 30
0.0
  3
FILL0
  1

  0
LINE
  5
2C
  8
M1
 62
     7
 10
554.005988
 20
204.0
 30
0.0
 11
554.60599400000001
 21
208.49999999999989
 31
0.0
  0
LINE
  5
2D
  8
M1
 62
     7
 10
554.60599400000001
 20
208.49999999999989
 30
0.0
 11
555.80597599999987
 21
208.49999999999989
 31
0.0
  0
LINE
  5
2E
  8
M1
 62
     7
 10
555.80597599999987
 20
208.49999999999989
 30
0.0
 11
557.005988
 21
205.799995
 31
0.0
  0
LINE
  5
2F
  8
M1
 62
     7
 10
557.005988
 20
205.799995
 30
0.0
 11
558.20596999999998
 21
208.49999999999989
 31
0.0
  0
LINE
  5
30
  8
M1
 62
     7
 10
558.20596999999998
 20
208.49999999999989
 30
0.0
 11
559.40598199999999
 21
208.49999999999989
 31
0.0
  0
LINE
  5
31
  8
M1
 62
     7
 10
559.40598199999999
 20
208.49999999999989
 30
0.0
 11
560.00598799999989
 21
204.0
 31
0.0
  0
LINE
  5
32
  8
M1
 62
     7
 10
560.00598799999989
 20
204.0
 30
0.0
 11
558.80597599999999
 21
204.0
 31
0.0
  0
LINE
  5
33
  8
M1
 62
     7
 10
558.80597599999999
 20
204.0
 30
0.0
 11
558.3559939999999
 21
205.45999900000001
 31
0.0
  0
LINE
  5
34
  8
M1
 62
     7
 10
558.3559939999999
 20
205.45999900000001
 30
0.0
 11
557.90598199999999
 21
204.0
 31
0.0
  0
LINE
  5
35
  8
M1
 62
     7
 10
557.90598199999999
 20
204.0
 30
0.0
 11
556.1059939999999
 21
204.0
 31
0.0
  0
LINE
  5
36
  8
M1
 62
     7
 10
556.1059939999999
 20
204.0
 30
0.0
 11
555.65598199999999
 21
205.45999900000001
 31
0.0
  0
LINE
  5
37
  8
M1
 62
     7
 10
555.65598199999999
 20
205.45999900000001
 30
0.0
 11
555.20596999999998
 21
204.0
 31
0.0
  0
LINE
  5
38
  8
M1
 62
     7
 10
555.20596999999998
 20
204.0
 30
0.0
 11
554.005988
 21
204.0
 31
0.0
  0
ENDBLK
  5
3A
  8
M1
  0
BLOCK
  8
M1
  2
FILL1
 70
     0
 10
0.0
 20
0.0
 30
0.0
  3
FILL1
  1

  0
LINE
  5
3C
  8
M1
 62
     7
 10
560.00598799999989
 20
208.49999999999989
 30
0.0
 11
561.20596999999987
 21
208.49999999999989
 31
0.0
  0
LINE
  5
3D
  8
M1
 62
     7
 10
561.20596999999987
 20
208.49999999999989
 30
0.0
 11
563.005988
 21
206.69999699999991
 31
0.0
  0
LINE
  5
3E
  8
M1
 62
     7
 10
563.005988
 20
206.69999699999991
 30
0.0
 11
564.80597599999987
 21
208.49999999999989
 31
0.0
  0
LINE
  5
3F
  8
M1
 62
     7
 10
564.80597599999987
 20
208.49999999999989
 30
0.0
 11
566.005988
 21
208.49999999999989
 31
0.0
  0
LINE
  5
40
  8
M1
 62
     7
 10
566.005988
 20
208.49999999999989
 30
0.0
 11
564.20596999999987
 21
205.5042949999999
 31
0.0
  0
LINE
  5
41
  8
M1
 62
     7
 10
564.20596999999987
 20
205.5042949999999
 30
0.0
 11
564.20596999999987
 21
204.0
 31
0.0
  0
LINE
  5
42
  8
M1
 62
     7
 10
564.20596999999987
 20
204.0
 30
0.0
 11
561.80597599999999
 21
204.0
 31
0.0
  0
LINE
  5
43
  8
M1
 62
     7
 10
561.80597599999999
 20
204.0
 30
0.0
 11
561.80597599999999
 21
205.5042949999999
 31
0.0
  0
LINE
  5
44
  8
M1
 62
     7
 10
561.80597599999999
 20
205.5042949999999
 30
0.0
 11
560.00598799999989
 21
208.49999999999989
 31
0.0
  0
ENDBLK
  5
46
  8
M1
  0
BLOCK
  8
M1
  2
FILL2
 70
     0
 10
0.0
 20
0.0
 30
0.0
  3
FILL2
  1

  0
LINE
  5
48
  8
M1
 62
     7
 10
566.60599400000001
 20
208.49999999999989
 30
0.0
 11
567.80597599999999
 21
208.49999999999989
 31
0.0
  0
LINE
  5
49
  8
M1
 62
     7
 10
567.80597599999999
 20
208.49999999999989
 30
0.0
 11
569.00598799999989
 21
205.799995
 31
0.0
  0
LINE
  5
4A
  8
M1
 62
     7
 10
569.00598799999989
 20
205.799995
 30
0.0
 11
570.20596999999987
 21
208.49999999999989
 31
0.0
  0
LINE
  5
4B
  8
M1
 62
     7
 10
570.20596999999987
 20
208.49999999999989
 30
0.0
 11
571.40598199999999
 21
208.49999999999989
 31
0.0
  0
LINE
  5
4C
  8
M1
 62
     7
 10
571.40598199999999
 20
208.49999999999989
 30
0.0
 11
572.00598799999989
 21
204.0
 31
0.0
  0
LINE
  5
4D
  8
M1
 62
     7
 10
572.00598799999989
 20
204.0
 30
0.0
 11
570.80597599999999
 21
204.0
 31
0.0
  0
LINE
  5
4E
  8
M1
 62
     7
 10
570.80597599999999
 20
204.0
 30
0.0
 11
570.3559939999999
 21
205.45999900000001
 31
0.0
  0
LINE
  5
4F
  8
M1
 62
     7
 10
570.3559939999999
 20
205.45999900000001
 30
0.0
 11
569.90598199999999
 21
204.0
 31
0.0
  0
LINE
  5
50
  8
M1
 62
     7
 10
569.90598199999999
 20
204.0
 30
0.0
 11
568.1059939999999
 21
204.0
 31
0.0
  0
LINE
  5
51
  8
M1
 62
     7
 10
568.1059939999999
 20
204.0
 30
0.0
 11
567.65598199999999
 21
205.45999900000001
 31
0.0
  0
LINE
  5
52
  8
M1
 62
     7
 10
567.65598199999999
 20
205.45999900000001
 30
0.0
 11
567.20596999999998
 21
204.0
 31
0.0
  0
LINE
  5
53
  8
M1
 62
     7
 10
567.20596999999998
 20
204.0
 30
0.0
 11
566.005988
 21
204.0
 31
0.0
  0
LINE
  5
54
  8
M1
 62
     7
 10
566.005988
 20
204.0
 30
0.0
 11
566.60599400000001
 21
208.49999999999989
 31
0.0
  0
ENDBLK
  5
56
  8
M1
  0
ENDSEC
  0
SECTION
  2
ENTITIES
  0
LINE
  5
F0
  8
0
  6
BYBLOCK
 62
     0
 10
200.47595551536901
 20
146.06100031955381
 30
0.0
 11
200.47595551536901
 21
107.5610003195538
 31
0.0
  0
LINE
  5
F1
  8
0
  6
BYBLOCK
 62
     0
 10
252.47595551536901
 20
146.06100031955381
 30
0.0
 11
252.47595551536901
 21
98.560966319553884
 31
0.0
  0
LINE
  5
F2
  8
0
  6
BYBLOCK
 62
     0
 10
240.47595551536901
 20
245.37124831955381
 30
0.0
 11
240.47595551536901
 21
126.8110003195538
 31
0.0
  0
LINE
  5
F3
  8
0
  6
BYBLOCK
 62
     0
 10
212.47595551536901
 20
126.8110003195538
 30
0.0
 11
212.47595551536901
 21
245.37124831955381
 31
0.0
  0
LINE
  5
F4
  8
0
  6
BYBLOCK
 62
     0
 10
250.47595551536901
 20
33.561000319553841
 30
0.0
 11
202.47595551536901
 21
33.561000319553841
 31
0.0
  0
LINE
  5
F5
  8
0
  6
BYBLOCK
 62
     0
 10
200.47595551536901
 20
107.5610003195538
 30
0.0
 11
252.47595551536901
 21
107.5610003195538
 31
0.0
  0
LINE
  5
F6
  8
0
  6
BYBLOCK
 62
     0
 10
200.47595551536901
 20
106.5610003195538
 30
0.0
 11
252.47595551536901
 21
106.5610003195538
 31
0.0
  0
POLYLINE
  5
F7
  8
0
  6
BYBLOCK
 62
     0
 66
     1
 10
0.0
 20
0.0
 30
0.0
  0
VERTEX
  5
3B9
  8
0
  6
BYBLOCK
 62
     0
 10
212.47595551536901
 20
126.8110003195538
 30
0.0
  0
VERTEX
  5
3BA
  8
0
  6
BYBLOCK
 62
     0
 10
212.68864751536901
 20
124.98655231955379
 30
0.0
  0
VERTEX
  5
3BB
  8
0
  6
BYBLOCK
 62
     0
 10
213.32025851536909
 20
123.21753931955379
 30
0.0
  0
VERTEX
  5
3BC
  8
0
  6
BYBLOCK
 62
     0
 10
214.35159951536909
 20
121.5577113195538
 30
0.0
  0
VERTEX
  5
3BD
  8
0
  6
BYBLOCK
 62
     0
 10
215.751333515369
 20
120.05750231955381
 30
0.0
  0
VERTEX
  5
3BE
  8
0
  6
BYBLOCK
 62
     0
 10
217.47692951536899
 20
118.76249531955381
 30
0.0
  0
VERTEX
  5
3BF
  8
0
  6
BYBLOCK
 62
     0
 10
219.47595551536901
 20
117.7120373195538
 30
0.0
  0
VERTEX
  5
3C0
  8
0
  6
BYBLOCK
 62
     0
 10
221.687673515369
 20
116.9380473195538
 30
0.0
  0
VERTEX
  5
3C1
  8
0
  6
BYBLOCK
 62
     0
 10
224.04488151536901
 20
116.4640413195538
 30
0.0
  0
VERTEX
  5
3C2
  8
0
  6
BYBLOCK
 62
     0
 10
226.47595551536901
 20
116.30442331955381
 30
0.0
  0
VERTEX
  5
3C3
  8
0
  6
BYBLOCK
 62
     0
 10
228.907030515369
 20
116.4640413195538
 30
0.0
  0
VERTEX
  5
3C4
  8
0
  6
BYBLOCK
 62
     0
 10
231.26423751536899
 20
116.9380473195538
 30
0.0
  0
VERTEX
  5
3C5
  8
0
  6
BYBLOCK
 62
     0
 10
233.47595551536901
 20
117.7120373195538
 30
0.0
  0
VERTEX
  5
3C6
  8
0
  6
BYBLOCK
 62
     0
 10
235.47498251536911
 20
118.76249531955381
 30
0.0
  0
VERTEX
  5
3C7
  8
0
  6
BYBLOCK
 62
     0
 10
237.2005775153691
 20
120.05750231955381
 30
0.0
  0
VERTEX
  5
3C8
  8
0
  6
BYBLOCK
 62
     0
 10
238.60031151536899
 20
121.5577113195538
 30
0.0
  0
VERTEX
  5
3C9
  8
0
  6
BYBLOCK
 62
     0
 10
239.63165251536901
 20
123.21753931955379
 30
0.0
  0
VERTEX
  5
3CA
  8
0
  6
BYBLOCK
 62
     0
 10
240.26326451536889
 20
124.98655231955379
 30
0.0
  0
VERTEX
  5
3CB
  8
0
  6
BYBLOCK
 62
     0
 10
240.47595551536901
 20
126.8110003195538
 30
0.0
  0
SEQEND
  5
3CC
  8
0
  6
BYBLOCK
 62
     0
  0
LINE
  5
F8
  8
0
  6
BYBLOCK
 62
     0
 10
252.47595551536901
 20
35.561000319553841
 30
0.0
 11
200.47595551536901
 21
35.561000319553841
 31
0.0
  0
LINE
  5
F9
  8
0
  6
BYBLOCK
 62
     0
 10
200.47595551536901
 20
107.5610003195538
 30
0.0
 11
200.47595551536901
 21
35.561000319553841
 31
0.0
  0
LINE
  5
FA
  8
0
  6
BYBLOCK
 62
     0
 10
202.47595551536901
 20
35.561000319553841
 30
0.0
 11
202.47595551536901
 21
33.561000319553841
 31
0.0
  0
INSERT
  5
FB
  8
0
  6
BYBLOCK
 62
     0
  2
FILL2
 10
-336.52356248463087
 20
-163.4389996804461
 30
0.0
  0
INSERT
  5
FC
  8
0
  6
BYBLOCK
 62
     0
  2
FILL1
 10
-336.52356248463087
 20
-163.4389996804461
 30
0.0
  0
INSERT
  5
FD
  8
0
  6
BYBLOCK
 62
     0
  2
FILL0
 10
-336.52356248463087
 20
-163.4389996804461
 30
0.0
  0
LINE
  5
FE
  8
0
  6
BYBLOCK
 62
     0
 10
227.68240751536899
 20
42.065295319553819
 30
0.0
 11
227.68240751536899
 21
40.561000319553827
 31
0.0
  0
LINE
  5
FF
  8
0
  6
BYBLOCK
 62
     0
 10
230.082431515369
 20
45.061000319553841
 30
0.0
 11
229.48242551536899
 21
40.561000319553827
 31
0.0
  0
LINE
  5
100
  8
0
  6
BYBLOCK
 62
     0
 10
231.13241951536901
 20
42.020999319553852
 30
0.0
 11
230.68240751536899
 21
40.561000319553827
 31
0.0
  0
LINE
  5
101
  8
0
  6
BYBLOCK
 62
     0
 10
231.13241951536901
 20
42.020999319553852
 30
0.0
 11
231.582431515369
 21
40.561000319553827
 31
0.0
  0
LINE
  5
102
  8
0
  6
BYBLOCK
 62
     0
 10
233.832431515369
 20
42.020999319553852
 30
0.0
 11
234.282413515369
 21
40.561000319553827
 31
0.0
  0
LINE
  5
103
  8
0
  6
BYBLOCK
 62
     0
 10
233.832431515369
 20
42.020999319553852
 30
0.0
 11
233.38241951536901
 21
40.561000319553827
 31
0.0
  0
LINE
  5
104
  8
0
  6
BYBLOCK
 62
     0
 10
234.88241951536901
 20
45.061000319553841
 30
0.0
 11
235.48242551536899
 21
40.561000319553827
 31
0.0
  0
LINE
  5
105
  8
0
  6
BYBLOCK
 62
     0
 10
222.88241951536901
 20
45.061000319553841
 30
0.0
 11
223.48242551536899
 21
40.561000319553827
 31
0.0
  0
LINE
  5
106
  8
0
  6
BYBLOCK
 62
     0
 10
221.832431515369
 20
42.020999319553852
 30
0.0
 11
222.282413515369
 21
40.561000319553827
 31
0.0
  0
LINE
  5
107
  8
0
  6
BYBLOCK
 62
     0
 10
221.832431515369
 20
42.020999319553852
 30
0.0
 11
221.38241951536901
 21
40.561000319553827
 31
0.0
  0
LINE
  5
108
  8
0
  6
BYBLOCK
 62
     0
 10
219.13241951536901
 20
42.020999319553852
 30
0.0
 11
219.582431515369
 21
40.561000319553827
 31
0.0
  0
LINE
  5
109
  8
0
  6
BYBLOCK
 62
     0
 10
219.13241951536901
 20
42.020999319553852
 30
0.0
 11
218.68240751536899
 21
40.561000319553827
 31
0.0
  0
LINE
  5
10A
  8
0
  6
BYBLOCK
 62
     0
 10
218.08243151536911
 20
45.061000319553841
 30
0.0
 11
217.48242551536899
 21
40.561000319553827
 31
0.0
  0
LINE
  5
10B
  8
0
  6
BYBLOCK
 62
     0
 10
225.282413515369
 20
42.065295319553819
 30
0.0
 11
225.282413515369
 21
40.561000319553827
 31
0.0
  0
LINE
  5
10C
  8
0
  6
BYBLOCK
 62
     0
 10
252.47595551536901
 20
58.561011319553842
 30
0.0
 11
252.47595551536901
 21
35.561000319553841
 31
0.0
  0
LINE
  5
10D
  8
0
  6
BYBLOCK
 62
     0
 10
231.582431515369
 20
40.561000319553827
 30
0.0
 11
232.48242551536899
 21
40.561000319553827
 31
0.0
  0
LINE
  5
10E
  8
0
  6
BYBLOCK
 62
     0
 10
223.48242551536899
 20
40.561000319553827
 30
0.0
 11
222.282413515369
 21
40.561000319553827
 31
0.0
  0
LINE
  5
10F
  8
0
  6
BYBLOCK
 62
     0
 10
221.38241951536901
 20
40.561000319553827
 30
0.0
 11
220.48242551536899
 21
40.561000319553827
 31
0.0
  0
LINE
  5
110
  8
0
  6
BYBLOCK
 62
     0
 10
219.582431515369
 20
40.561000319553827
 30
0.0
 11
220.48242551536899
 21
40.561000319553827
 31
0.0
  0
LINE
  5
111
  8
0
  6
BYBLOCK
 62
     0
 10
217.48242551536899
 20
40.561000319553827
 30
0.0
 11
218.68240751536899
 21
40.561000319553827
 31
0.0
  0
LINE
  5
112
  8
0
  6
BYBLOCK
 62
     0
 10
229.48242551536899
 20
40.561000319553827
 30
0.0
 11
230.68240751536899
 21
40.561000319553827
 31
0.0
  0
LINE
  5
113
  8
0
  6
BYBLOCK
 62
     0
 10
225.282413515369
 20
40.561000319553827
 30
0.0
 11
226.48242551536899
 21
40.561000319553827
 31
0.0
  0
LINE
  5
114
  8
0
  6
BYBLOCK
 62
     0
 10
227.68240751536899
 20
40.561000319553827
 30
0.0
 11
226.48242551536899
 21
40.561000319553827
 31
0.0
  0
LINE
  5
115
  8
0
  6
BYBLOCK
 62
     0
 10
233.38241951536901
 20
40.561000319553827
 30
0.0
 11
232.48242551536899
 21
40.561000319553827
 31
0.0
  0
LINE
  5
116
  8
0
  6
BYBLOCK
 62
     0
 10
235.48242551536899
 20
40.561000319553827
 30
0.0
 11
234.282413515369
 21
40.561000319553827
 31
0.0
  0
LINE
  5
117
  8
0
  6
BYBLOCK
 62
     0
 10
250.47595551536901
 20
35.561000319553841
 30
0.0
 11
250.47595551536901
 21
33.561000319553841
 31
0.0
  0
LINE
  5
118
  8
0
  6
BYBLOCK
 62
     0
 10
283.600813515369
 20
61.061000319553841
 30
0.0
 11
262.47595551536898
 21
61.061000319553841
 31
0.0
  0
LINE
  5
119
  8
0
  6
BYBLOCK
 62
     0
 10
271.47595551536898
 20
90.820023319553826
 30
0.0
 11
283.47595551536898
 21
90.820023319553826
 31
0.0
  0
LINE
  5
11A
  8
0
  6
BYBLOCK
 62
     0
 10
273.47595551536898
 20
93.561000319553827
 30
0.0
 11
281.47595551536898
 21
93.561000319553827
 31
0.0
  0
LINE
  5
11B
  8
0
  6
BYBLOCK
 62
     0
 10
273.47595551536898
 20
98.673838319553866
 30
0.0
 11
281.47595551536898
 21
98.673838319553866
 31
0.0
  0
POLYLINE
  5
11C
  8
0
  6
BYBLOCK
 62
     0
 66
     1
 10
0.0
 20
0.0
 30
0.0
  0
VERTEX
  5
3CD
  8
0
  6
BYBLOCK
 62
     0
 10
252.37220351536899
 20
95.060985319553822
 30
0.0
  0
VERTEX
  5
3CE
  8
0
  6
BYBLOCK
 62
     0
 10
249.94187651536899
 20
93.797779319553854
 30
0.0
  0
VERTEX
  5
3CF
  8
0
  6
BYBLOCK
 62
     0
 10
247.740469515369
 20
92.07161231955385
 30
0.0
  0
VERTEX
  5
3D0
  8
0
  6
BYBLOCK
 62
     0
 10
245.83486951536901
 20
89.93493131955384
 30
0.0
  0
VERTEX
  5
3D1
  8
0
  6
BYBLOCK
 62
     0
 10
244.28297751536911
 20
87.452660319553843
 30
0.0
  0
VERTEX
  5
3D2
  8
0
  6
BYBLOCK
 62
     0
 10
243.13194851536909
 20
84.700219319553838
 30
0.0
  0
VERTEX
  5
3D3
  8
0
  6
BYBLOCK
 62
     0
 10
242.41675451536889
 20
81.761242319553844
 30
0.0
  0
VERTEX
  5
3D4
  8
0
  6
BYBLOCK
 62
     0
 10
242.159126515369
 20
78.725027319553845
 30
0.0
  0
VERTEX
  5
3D5
  8
0
  6
BYBLOCK
 62
     0
 10
242.15845351536899
 20
78.561000319553841
 30
0.0
  0
SEQEND
  5
3D6
  8
0
  6
BYBLOCK
 62
     0
  0
LINE
  5
11D
  8
0
  6
BYBLOCK
 62
     0
 10
257.47596051536908
 20
96.060996319553865
 30
0.0
 11
257.47596051536908
 21
61.061011319553842
 31
0.0
  0
LINE
  5
11E
  8
0
  6
BYBLOCK
 62
     0
 10
260.97595551536898
 20
96.061000319553855
 30
0.0
 11
260.97595551536898
 21
61.061008319553849
 31
0.0
  0
LINE
  5
11F
  8
0
  6
BYBLOCK
 62
     0
 10
261.47595551536898
 20
95.061000319553841
 30
0.0
 11
261.47595551536898
 21
62.061000319553841
 31
0.0
  0
POLYLINE
  5
120
  8
0
  6
BYBLOCK
 62
     0
 66
     1
 10
0.0
 20
0.0
 30
0.0
  0
VERTEX
  5
3D7
  8
0
  6
BYBLOCK
 62
     0
 10
242.15845351536899
 20
78.561000319553841
 30
0.0
  0
VERTEX
  5
3D8
  8
0
  6
BYBLOCK
 62
     0
 10
242.39116051536911
 20
75.522160319553848
 30
0.0
  0
VERTEX
  5
3D9
  8
0
  6
BYBLOCK
 62
     0
 10
243.08221151536901
 20
72.575653319553822
 30
0.0
  0
VERTEX
  5
3DA
  8
0
  6
BYBLOCK
 62
     0
 10
244.21060951536899
 20
69.811008319553849
 30
0.0
  0
VERTEX
  5
3DB
  8
0
  6
BYBLOCK
 62
     0
 10
245.742068515369
 20
67.312227319553841
 30
0.0
  0
VERTEX
  5
3DC
  8
0
  6
BYBLOCK
 62
     0
 10
247.63005451536901
 20
65.155234319553813
 30
0.0
  0
VERTEX
  5
3DD
  8
0
  6
BYBLOCK
 62
     0
 10
249.81720451536901
 20
63.405569319553848
 30
0.0
  0
VERTEX
  5
3DE
  8
0
  6
BYBLOCK
 62
     0
 10
252.23706151536899
 20
62.11639331955385
 30
0.0
  0
VERTEX
  5
3DF
  8
0
  6
BYBLOCK
 62
     0
 10
252.37220351536899
 20
62.061015319553832
 30
0.0
  0
SEQEND
  5
3E0
  8
0
  6
BYBLOCK
 62
     0
  0
LINE
  5
121
  8
0
  6
BYBLOCK
 62
     0
 10
231.282413515369
 20
45.061000319553841
 30
0.0
 11
232.48242551536899
 21
42.360995319553837
 31
0.0
  0
LINE
  5
122
  8
0
  6
BYBLOCK
 62
     0
 10
223.48242551536899
 20
45.061000319553841
 30
0.0
 11
224.68240751536899
 21
45.061000319553841
 31
0.0
  0
LINE
  5
123
  8
0
  6
BYBLOCK
 62
     0
 10
223.48242551536899
 20
45.061000319553841
 30
0.0
 11
225.282413515369
 21
42.065295319553819
 31
0.0
  0
LINE
  5
124
  8
0
  6
BYBLOCK
 62
     0
 10
218.08243151536911
 20
45.061000319553841
 30
0.0
 11
219.282413515369
 21
45.061000319553841
 31
0.0
  0
LINE
  5
125
  8
0
  6
BYBLOCK
 62
     0
 10
219.282413515369
 20
45.061000319553841
 30
0.0
 11
220.48242551536899
 21
42.360995319553837
 31
0.0
  0
LINE
  5
126
  8
0
  6
BYBLOCK
 62
     0
 10
221.68240751536899
 20
45.061000319553841
 30
0.0
 11
220.48242551536899
 21
42.360995319553837
 31
0.0
  0
LINE
  5
127
  8
0
  6
BYBLOCK
 62
     0
 10
222.88241951536901
 20
45.061000319553841
 30
0.0
 11
221.68240751536899
 21
45.061000319553841
 31
0.0
  0
LINE
  5
128
  8
0
  6
BYBLOCK
 62
     0
 10
228.282413515369
 20
45.061000319553841
 30
0.0
 11
226.47595551536901
 21
43.254527319553823
 31
0.0
  0
LINE
  5
129
  8
0
  6
BYBLOCK
 62
     0
 10
229.48242551536899
 20
45.061000319553841
 30
0.0
 11
228.282413515369
 21
45.061000319553841
 31
0.0
  0
LINE
  5
12A
  8
0
  6
BYBLOCK
 62
     0
 10
229.48242551536899
 20
45.061000319553841
 30
0.0
 11
227.68240751536899
 21
42.065295319553819
 31
0.0
  0
LINE
  5
12B
  8
0
  6
BYBLOCK
 62
     0
 10
230.082431515369
 20
45.061000319553841
 30
0.0
 11
231.282413515369
 21
45.061000319553841
 31
0.0
  0
LINE
  5
12C
  8
0
  6
BYBLOCK
 62
     0
 10
224.68240751536899
 20
45.061000319553841
 30
0.0
 11
226.48889551536911
 21
43.254527319553823
 31
0.0
  0
LINE
  5
12D
  8
0
  6
BYBLOCK
 62
     0
 10
233.68240751536899
 20
45.061000319553841
 30
0.0
 11
232.48242551536899
 21
42.360995319553837
 31
0.0
  0
LINE
  5
12E
  8
0
  6
BYBLOCK
 62
     0
 10
234.88241951536901
 20
45.061000319553841
 30
0.0
 11
233.68240751536899
 21
45.061000319553841
 31
0.0
  0
LINE
  5
12F
  8
0
  6
BYBLOCK
 62
     0
 10
257.47596051536908
 20
61.061006319553847
 30
0.0
 11
254.96720851536901
 21
61.060996319553851
 31
0.0
  0
ARC
  5
130
  8
0
  6
BYBLOCK
 62
     0
 10
254.9759525153691
 20
58.561011319553842
 30
0.0
 40
2.5
 50
89.999649999997345
 51
180.2001060000008
  0
ARC
  5
131
  8
0
  6
BYBLOCK
 62
     0
 10
262.47595551536898
 20
62.061000319553841
 30
0.0
 40
1.0
 50
180.0
 51
270.0
  0
LINE
  5
132
  8
0
  6
BYBLOCK
 62
     0
 10
260.97595551536898
 20
61.061008319553849
 30
0.0
 11
257.47596051536908
 21
61.060994319553821
 31
0.0
  0
LINE
  5
133
  8
0
  6
BYBLOCK
 62
     0
 10
260.97595551536898
 20
63.560969319553827
 30
0.0
 11
261.47595551536898
 21
63.560969319553827
 31
0.0
  0
LINE
  5
134
  8
0
  6
BYBLOCK
 62
     0
 10
269.11595551536902
 20
96.061000319553855
 30
0.0
 11
262.47595551536898
 21
96.061000319553855
 31
0.0
  0
LINE
  5
135
  8
0
  6
BYBLOCK
 62
     0
 10
269.11595551536902
 20
96.061000319553855
 30
0.0
 11
262.47595551536898
 21
96.061000319553855
 31
0.0
  0
LINE
  5
136
  8
0
  6
BYBLOCK
 62
     0
 10
254.963599515369
 20
96.060996319553865
 30
0.0
 11
257.47596051536908
 21
96.060996319553865
 31
0.0
  0
ARC
  5
137
  8
0
  6
BYBLOCK
 62
     0
 10
254.9759525153691
 20
98.560966319553884
 30
0.0
 40
2.5
 50
179.79981699999939
 51
270.28310200000033
  0
ARC
  5
138
  8
0
  6
BYBLOCK
 62
     0
 10
262.47595551536898
 20
95.061000319553841
 30
0.0
 40
1.0
 50
90.0
 51
180.0
  0
LINE
  5
139
  8
0
  6
BYBLOCK
 62
     0
 10
257.47596051536908
 20
96.060996319553865
 30
0.0
 11
260.97595551536898
 21
96.060996319553865
 31
0.0
  0
LINE
  5
13A
  8
0
  6
BYBLOCK
 62
     0
 10
260.97595551536898
 20
93.56103131955382
 30
0.0
 11
261.47595551536898
 21
93.56103131955382
 31
0.0
  0
ARC
  5
13B
  8
0
  6
BYBLOCK
 62
     0
 10
273.47595551536898
 20
96.673838319553852
 30
0.0
 40
2.0
 50
90.0
 51
180.0
  0
POLYLINE
  5
13C
  8
0
  6
BYBLOCK
 62
     0
 66
     1
 10
0.0
 20
0.0
 30
0.0
  0
VERTEX
  5
3E1
  8
0
  6
BYBLOCK
 62
     0
 10
273.47595551536898
 20
98.673838319553866
 30
0.0
  0
VERTEX
  5
3E2
  8
0
  6
BYBLOCK
 62
     0
 10
273.425425515369
 20
98.668895319553883
 30
0.0
  0
VERTEX
  5
3E3
  8
0
  6
BYBLOCK
 62
     0
 10
273.374903515369
 20
98.663939319553833
 30
0.0
  0
VERTEX
  5
3E4
  8
0
  6
BYBLOCK
 62
     0
 10
273.32439551536908
 20
98.658955319553812
 30
0.0
  0
VERTEX
  5
3E5
  8
0
  6
BYBLOCK
 62
     0
 10
273.27391151536898
 20
98.653931319553863
 30
0.0
  0
VERTEX
  5
3E6
  8
0
  6
BYBLOCK
 62
     0
 10
273.22345751536898
 20
98.648853319553851
 30
0.0
  0
VERTEX
  5
3E7
  8
0
  6
BYBLOCK
 62
     0
 10
273.17304151536899
 20
98.643708319553866
 30
0.0
  0
VERTEX
  5
3E8
  8
0
  6
BYBLOCK
 62
     0
 10
273.12267051536912
 20
98.638482319553816
 30
0.0
  0
VERTEX
  5
3E9
  8
0
  6
BYBLOCK
 62
     0
 10
273.072352515369
 20
98.633162319553833
 30
0.0
  0
VERTEX
  5
3EA
  8
0
  6
BYBLOCK
 62
     0
 10
273.02209551536902
 20
98.627735319553835
 30
0.0
  0
VERTEX
  5
3EB
  8
0
  6
BYBLOCK
 62
     0
 10
272.97190651536908
 20
98.622186319553805
 30
0.0
  0
VERTEX
  5
3EC
  8
0
  6
BYBLOCK
 62
     0
 10
272.92179351536902
 20
98.616503319553829
 30
0.0
  0
VERTEX
  5
3ED
  8
0
  6
BYBLOCK
 62
     0
 10
272.87176351536903
 20
98.610672319553885
 30
0.0
  0
VERTEX
  5
3EE
  8
0
  6
BYBLOCK
 62
     0
 10
272.82182551536903
 20
98.604679319553824
 30
0.0
  0
VERTEX
  5
3EF
  8
0
  6
BYBLOCK
 62
     0
 10
272.77198451536901
 20
98.598512319553834
 30
0.0
  0
VERTEX
  5
3F0
  8
0
  6
BYBLOCK
 62
     0
 10
272.72225051536901
 20
98.592156319553865
 30
0.0
  0
VERTEX
  5
3F1
  8
0
  6
BYBLOCK
 62
     0
 10
272.67263051536901
 20
98.585599319553864
 30
0.0
  0
VERTEX
  5
3F2
  8
0
  6
BYBLOCK
 62
     0
 10
272.62313151536898
 20
98.578826319553798
 30
0.0
  0
VERTEX
  5
3F3
  8
0
  6
BYBLOCK
 62
     0
 10
272.57376151536909
 20
98.571825319553867
 30
0.0
  0
VERTEX
  5
3F4
  8
0
  6
BYBLOCK
 62
     0
 10
272.52452751536902
 20
98.564582319553836
 30
0.0
  0
VERTEX
  5
3F5
  8
0
  6
BYBLOCK
 62
     0
 10
272.47543751536909
 20
98.557083319553826
 30
0.0
  0
VERTEX
  5
3F6
  8
0
  6
BYBLOCK
 62
     0
 10
272.42649951536902
 20
98.549315319553855
 30
0.0
  0
VERTEX
  5
3F7
  8
0
  6
BYBLOCK
 62
     0
 10
272.37772051536911
 20
98.541265319553816
 30
0.0
  0
VERTEX
  5
3F8
  8
0
  6
BYBLOCK
 62
     0
 10
272.329108515369
 20
98.532919319553855
 30
0.0
  0
VERTEX
  5
3F9
  8
0
  6
BYBLOCK
 62
     0
 10
272.28067051536902
 20
98.524264319553879
 30
0.0
  0
VERTEX
  5
3FA
  8
0
  6
BYBLOCK
 62
     0
 10
272.23241451536887
 20
98.515286319553823
 30
0.0
  0
VERTEX
  5
3FB
  8
0
  6
BYBLOCK
 62
     0
 10
272.18434751536898
 20
98.505972319553848
 30
0.0
  0
VERTEX
  5
3FC
  8
0
  6
BYBLOCK
 62
     0
 10
272.13647851536899
 20
98.496308319553876
 30
0.0
  0
VERTEX
  5
3FD
  8
0
  6
BYBLOCK
 62
     0
 10
272.08881351536888
 20
98.486281319553825
 30
0.0
  0
VERTEX
  5
3FE
  8
0
  6
BYBLOCK
 62
     0
 10
272.04136151536898
 20
98.475878319553829
 30
0.0
  0
VERTEX
  5
3FF
  8
0
  6
BYBLOCK
 62
     0
 10
271.99412851536903
 20
98.465084319553853
 30
0.0
  0
VERTEX
  5
400
  8
0
  6
BYBLOCK
 62
     0
 10
271.94711951536902
 20
98.453883319553825
 30
0.0
  0
VERTEX
  5
401
  8
0
  6
BYBLOCK
 62
     0
 10
271.900321515369
 20
98.442238319553837
 30
0.0
  0
VERTEX
  5
402
  8
0
  6
BYBLOCK
 62
     0
 10
271.85372051536899
 20
98.430110319553876
 30
0.0
  0
VERTEX
  5
403
  8
0
  6
BYBLOCK
 62
     0
 10
271.80729851536898
 20
98.417458319553873
 30
0.0
  0
VERTEX
  5
404
  8
0
  6
BYBLOCK
 62
     0
 10
271.76104151536907
 20
98.404244319553825
 30
0.0
  0
VERTEX
  5
405
  8
0
  6
BYBLOCK
 62
     0
 10
271.71493251536913
 20
98.390425319553856
 30
0.0
  0
VERTEX
  5
406
  8
0
  6
BYBLOCK
 62
     0
 10
271.66895551536902
 20
98.375964319553887
 30
0.0
  0
VERTEX
  5
407
  8
0
  6
BYBLOCK
 62
     0
 10
271.62309651536901
 20
98.360819319553855
 30
0.0
  0
VERTEX
  5
408
  8
0
  6
BYBLOCK
 62
     0
 10
271.57733851536909
 20
98.344951319553843
 30
0.0
  0
VERTEX
  5
409
  8
0
  6
BYBLOCK
 62
     0
 10
271.53166551536913
 20
98.328321319553837
 30
0.0
  0
VERTEX
  5
40A
  8
0
  6
BYBLOCK
 62
     0
 10
271.48606251536899
 20
98.310887319553842
 30
0.0
  0
VERTEX
  5
40B
  8
0
  6
BYBLOCK
 62
     0
 10
271.44051251536899
 20
98.29261031955383
 30
0.0
  0
VERTEX
  5
40C
  8
0
  6
BYBLOCK
 62
     0
 10
271.39500051536902
 20
98.273450319553831
 30
0.0
  0
VERTEX
  5
40D
  8
0
  6
BYBLOCK
 62
     0
 10
271.34951151536899
 20
98.253367319553831
 30
0.0
  0
VERTEX
  5
40E
  8
0
  6
BYBLOCK
 62
     0
 10
271.304028515369
 20
98.232322319553873
 30
0.0
  0
VERTEX
  5
40F
  8
0
  6
BYBLOCK
 62
     0
 10
271.25853651536909
 20
98.210273319553835
 30
0.0
  0
VERTEX
  5
410
  8
0
  6
BYBLOCK
 62
     0
 10
271.21301851536901
 20
98.187182319553813
 30
0.0
  0
VERTEX
  5
411
  8
0
  6
BYBLOCK
 62
     0
 10
271.1674605153691
 20
98.163009319553851
 30
0.0
  0
VERTEX
  5
412
  8
0
  6
BYBLOCK
 62
     0
 10
271.12184551536899
 20
98.137712319553827
 30
0.0
  0
VERTEX
  5
413
  8
0
  6
BYBLOCK
 62
     0
 10
271.07615751536912
 20
98.111253319553839
 30
0.0
  0
VERTEX
  5
414
  8
0
  6
BYBLOCK
 62
     0
 10
271.03038251536901
 20
98.083592319553816
 30
0.0
  0
VERTEX
  5
415
  8
0
  6
BYBLOCK
 62
     0
 10
270.984502515369
 20
98.054687319553864
 30
0.0
  0
VERTEX
  5
416
  8
0
  6
BYBLOCK
 62
     0
 10
270.93850251536912
 20
98.024501319553806
 30
0.0
  0
VERTEX
  5
417
  8
0
  6
BYBLOCK
 62
     0
 10
270.89236651536902
 20
97.992992319553821
 30
0.0
  0
VERTEX
  5
418
  8
0
  6
BYBLOCK
 62
     0
 10
270.84608051536901
 20
97.960121319553821
 30
0.0
  0
VERTEX
  5
419
  8
0
  6
BYBLOCK
 62
     0
 10
270.79962651536903
 20
97.925847319553839
 30
0.0
  0
VERTEX
  5
41A
  8
0
  6
BYBLOCK
 62
     0
 10
270.75298951536888
 20
97.890132319553786
 30
0.0
  0
VERTEX
  5
41B
  8
0
  6
BYBLOCK
 62
     0
 10
270.70615351536912
 20
97.85293431955381
 30
0.0
  0
VERTEX
  5
41C
  8
0
  6
BYBLOCK
 62
     0
 10
270.65910251536911
 20
97.814213319553843
 30
0.0
  0
VERTEX
  5
41D
  8
0
  6
BYBLOCK
 62
     0
 10
270.61182251536889
 20
97.773931319553867
 30
0.0
  0
VERTEX
  5
41E
  8
0
  6
BYBLOCK
 62
     0
 10
270.56429951536899
 20
97.732062319553833
 30
0.0
  0
VERTEX
  5
41F
  8
0
  6
BYBLOCK
 62
     0
 10
270.51653851536901
 20
97.688645319553871
 30
0.0
  0
VERTEX
  5
420
  8
0
  6
BYBLOCK
 62
     0
 10
270.46854851536909
 20
97.643732319553806
 30
0.0
  0
VERTEX
  5
421
  8
0
  6
BYBLOCK
 62
     0
 10
270.420336515369
 20
97.597377319553857
 30
0.0
  0
VERTEX
  5
422
  8
0
  6
BYBLOCK
 62
     0
 10
270.37191151536911
 20
97.549634319553832
 30
0.0
  0
VERTEX
  5
423
  8
0
  6
BYBLOCK
 62
     0
 10
270.3232815153691
 20
97.500556319553823
 30
0.0
  0
VERTEX
  5
424
  8
0
  6
BYBLOCK
 62
     0
 10
270.27445351536898
 20
97.450196319553811
 30
0.0
  0
VERTEX
  5
425
  8
0
  6
BYBLOCK
 62
     0
 10
270.22543751536909
 20
97.398607319553832
 30
0.0
  0
VERTEX
  5
426
  8
0
  6
BYBLOCK
 62
     0
 10
270.17624151536899
 20
97.345844319553862
 30
0.0
  0
VERTEX
  5
427
  8
0
  6
BYBLOCK
 62
     0
 10
270.12687251536909
 20
97.291959319553825
 30
0.0
  0
VERTEX
  5
428
  8
0
  6
BYBLOCK
 62
     0
 10
270.07734051536897
 20
97.237007319553825
 30
0.0
  0
VERTEX
  5
429
  8
0
  6
BYBLOCK
 62
     0
 10
270.02765151536897
 20
97.181039319553861
 30
0.0
  0
VERTEX
  5
42A
  8
0
  6
BYBLOCK
 62
     0
 10
269.97781551536912
 20
97.124110319553836
 30
0.0
  0
VERTEX
  5
42B
  8
0
  6
BYBLOCK
 62
     0
 10
269.92783951536887
 20
97.066274319553884
 30
0.0
  0
VERTEX
  5
42C
  8
0
  6
BYBLOCK
 62
     0
 10
269.87773251536902
 20
97.007583319553873
 30
0.0
  0
VERTEX
  5
42D
  8
0
  6
BYBLOCK
 62
     0
 10
269.82750251536908
 20
96.948091319553839
 30
0.0
  0
VERTEX
  5
42E
  8
0
  6
BYBLOCK
 62
     0
 10
269.77715751536908
 20
96.887851319553818
 30
0.0
  0
VERTEX
  5
42F
  8
0
  6
BYBLOCK
 62
     0
 10
269.72670651536902
 20
96.826917319553857
 30
0.0
  0
VERTEX
  5
430
  8
0
  6
BYBLOCK
 62
     0
 10
269.67615651536909
 20
96.765342319553838
 30
0.0
  0
VERTEX
  5
431
  8
0
  6
BYBLOCK
 62
     0
 10
269.6255165153691
 20
96.703180319553837
 30
0.0
  0
VERTEX
  5
432
  8
0
  6
BYBLOCK
 62
     0
 10
269.57479351536898
 20
96.640484319553821
 30
0.0
  0
VERTEX
  5
433
  8
0
  6
BYBLOCK
 62
     0
 10
269.52399751536899
 20
96.577307319553825
 30
0.0
  0
VERTEX
  5
434
  8
0
  6
BYBLOCK
 62
     0
 10
269.47313651536911
 20
96.513703319553841
 30
0.0
  0
VERTEX
  5
435
  8
0
  6
BYBLOCK
 62
     0
 10
269.42221651536909
 20
96.449725319553863
 30
0.0
  0
VERTEX
  5
436
  8
0
  6
BYBLOCK
 62
     0
 10
269.37124851536902
 20
96.385427319553855
 30
0.0
  0
VERTEX
  5
437
  8
0
  6
BYBLOCK
 62
     0
 10
269.320239515369
 20
96.320862319553825
 30
0.0
  0
VERTEX
  5
438
  8
0
  6
BYBLOCK
 62
     0
 10
269.269197515369
 20
96.256083319553852
 30
0.0
  0
VERTEX
  5
439
  8
0
  6
BYBLOCK
 62
     0
 10
269.21813051536901
 20
96.191145319553868
 30
0.0
  0
VERTEX
  5
43A
  8
0
  6
BYBLOCK
 62
     0
 10
269.16704751536901
 20
96.126099319553873
 30
0.0
  0
VERTEX
  5
43B
  8
0
  6
BYBLOCK
 62
     0
 10
269.11595551536902
 20
96.061000319553855
 30
0.0
  0
SEQEND
  5
43C
  8
0
  6
BYBLOCK
 62
     0
  0
ARC
  5
13D
  8
0
  6
BYBLOCK
 62
     0
 10
273.47595551536898
 20
95.561000319553841
 30
0.0
 40
2.0
 50
180.0
 51
270.0
  0
POLYLINE
  5
13E
  8
0
  6
BYBLOCK
 62
     0
 66
     1
 10
0.0
 20
0.0
 30
0.0
  0
VERTEX
  5
43D
  8
0
  6
BYBLOCK
 62
     0
 10
271.47595551536898
 20
93.561000319553827
 30
0.0
  0
VERTEX
  5
43E
  8
0
  6
BYBLOCK
 62
     0
 10
271.44273051536902
 20
93.547220319553844
 30
0.0
  0
VERTEX
  5
43F
  8
0
  6
BYBLOCK
 62
     0
 10
271.40949151536898
 20
93.533405319553822
 30
0.0
  0
VERTEX
  5
440
  8
0
  6
BYBLOCK
 62
     0
 10
271.37622451536907
 20
93.519522319553843
 30
0.0
  0
VERTEX
  5
441
  8
0
  6
BYBLOCK
 62
     0
 10
271.34291751536909
 20
93.505534319553803
 30
0.0
  0
VERTEX
  5
442
  8
0
  6
BYBLOCK
 62
     0
 10
271.30955651536902
 20
93.491409319553838
 30
0.0
  0
VERTEX
  5
443
  8
0
  6
BYBLOCK
 62
     0
 10
271.27612651536901
 20
93.477111319553828
 30
0.0
  0
VERTEX
  5
444
  8
0
  6
BYBLOCK
 62
     0
 10
271.2426155153691
 20
93.462605319553802
 30
0.0
  0
VERTEX
  5
445
  8
0
  6
BYBLOCK
 62
     0
 10
271.20900951536902
 20
93.447858319553859
 30
0.0
  0
VERTEX
  5
446
  8
0
  6
BYBLOCK
 62
     0
 10
271.17529351536899
 20
93.432834319553834
 30
0.0
  0
VERTEX
  5
447
  8
0
  6
BYBLOCK
 62
     0
 10
271.14145651536899
 20
93.417500319553824
 30
0.0
  0
VERTEX
  5
448
  8
0
  6
BYBLOCK
 62
     0
 10
271.10748251536899
 20
93.401820319553835
 30
0.0
  0
VERTEX
  5
449
  8
0
  6
BYBLOCK
 62
     0
 10
271.07335951536902
 20
93.385760319553867
 30
0.0
  0
VERTEX
  5
44A
  8
0
  6
BYBLOCK
 62
     0
 10
271.03907351536901
 20
93.369286319553865
 30
0.0
  0
VERTEX
  5
44B
  8
0
  6
BYBLOCK
 62
     0
 10
271.00460951536888
 20
93.352363319553845
 30
0.0
  0
VERTEX
  5
44C
  8
0
  6
BYBLOCK
 62
     0
 10
270.96995651536901
 20
93.334956319553854
 30
0.0
  0
VERTEX
  5
44D
  8
0
  6
BYBLOCK
 62
     0
 10
270.93509851536902
 20
93.317031319553834
 30
0.0
  0
VERTEX
  5
44E
  8
0
  6
BYBLOCK
 62
     0
 10
270.90002351536901
 20
93.298553319553847
 30
0.0
  0
VERTEX
  5
44F
  8
0
  6
BYBLOCK
 62
     0
 10
270.86471751536902
 20
93.279489319553875
 30
0.0
  0
VERTEX
  5
450
  8
0
  6
BYBLOCK
 62
     0
 10
270.82916651536902
 20
93.259802319553842
 30
0.0
  0
VERTEX
  5
451
  8
0
  6
BYBLOCK
 62
     0
 10
270.793356515369
 20
93.239460319553871
 30
0.0
  0
VERTEX
  5
452
  8
0
  6
BYBLOCK
 62
     0
 10
270.75727551536909
 20
93.218426319553814
 30
0.0
  0
VERTEX
  5
453
  8
0
  6
BYBLOCK
 62
     0
 10
270.72090751536899
 20
93.196668319553865
 30
0.0
  0
VERTEX
  5
454
  8
0
  6
BYBLOCK
 62
     0
 10
270.68424151536902
 20
93.174149319553862
 30
0.0
  0
VERTEX
  5
455
  8
0
  6
BYBLOCK
 62
     0
 10
270.64726251536911
 20
93.150836319553832
 30
0.0
  0
VERTEX
  5
456
  8
0
  6
BYBLOCK
 62
     0
 10
270.60995751536899
 20
93.126695319553846
 30
0.0
  0
VERTEX
  5
457
  8
0
  6
BYBLOCK
 62
     0
 10
270.57231151536899
 20
93.101689319553827
 30
0.0
  0
VERTEX
  5
458
  8
0
  6
BYBLOCK
 62
     0
 10
270.53431251536898
 20
93.075786319553856
 30
0.0
  0
VERTEX
  5
459
  8
0
  6
BYBLOCK
 62
     0
 10
270.49594651536898
 20
93.048951319553794
 30
0.0
  0
VERTEX
  5
45A
  8
0
  6
BYBLOCK
 62
     0
 10
270.4571995153691
 20
93.021148319553845
 30
0.0
  0
VERTEX
  5
45B
  8
0
  6
BYBLOCK
 62
     0
 10
270.41805751536913
 20
92.992343319553868
 30
0.0
  0
VERTEX
  5
45C
  8
0
  6
BYBLOCK
 62
     0
 10
270.37851351536898
 20
92.962514319553861
 30
0.0
  0
VERTEX
  5
45D
  8
0
  6
BYBLOCK
 62
     0
 10
270.33857351536909
 20
92.931684319553824
 30
0.0
  0
VERTEX
  5
45E
  8
0
  6
BYBLOCK
 62
     0
 10
270.29825351536903
 20
92.899886319553843
 30
0.0
  0
VERTEX
  5
45F
  8
0
  6
BYBLOCK
 62
     0
 10
270.25756651536898
 20
92.867156319553828
 30
0.0
  0
VERTEX
  5
460
  8
0
  6
BYBLOCK
 62
     0
 10
270.21652551536903
 20
92.833528319553807
 30
0.0
  0
VERTEX
  5
461
  8
0
  6
BYBLOCK
 62
     0
 10
270.17514451536908
 20
92.799036319553807
 30
0.0
  0
VERTEX
  5
462
  8
0
  6
BYBLOCK
 62
     0
 10
270.133437515369
 20
92.763716319553851
 30
0.0
  0
VERTEX
  5
463
  8
0
  6
BYBLOCK
 62
     0
 10
270.09141751536902
 20
92.727601319553784
 30
0.0
  0
VERTEX
  5
464
  8
0
  6
BYBLOCK
 62
     0
 10
270.04909851536911
 20
92.690726319553846
 30
0.0
  0
VERTEX
  5
465
  8
0
  6
BYBLOCK
 62
     0
 10
270.00649351536902
 20
92.653126319553806
 30
0.0
  0
VERTEX
  5
466
  8
0
  6
BYBLOCK
 62
     0
 10
269.96361751536898
 20
92.614835319553819
 30
0.0
  0
VERTEX
  5
467
  8
0
  6
BYBLOCK
 62
     0
 10
269.92048151536909
 20
92.575888319553826
 30
0.0
  0
VERTEX
  5
468
  8
0
  6
BYBLOCK
 62
     0
 10
269.87710251536902
 20
92.536319319553826
 30
0.0
  0
VERTEX
  5
469
  8
0
  6
BYBLOCK
 62
     0
 10
269.83349051536908
 20
92.49616331955383
 30
0.0
  0
VERTEX
  5
46A
  8
0
  6
BYBLOCK
 62
     0
 10
269.789662515369
 20
92.455454319553823
 30
0.0
  0
VERTEX
  5
46B
  8
0
  6
BYBLOCK
 62
     0
 10
269.74562951536899
 20
92.414228319553814
 30
0.0
  0
VERTEX
  5
46C
  8
0
  6
BYBLOCK
 62
     0
 10
269.701406515369
 20
92.372518319553848
 30
0.0
  0
VERTEX
  5
46D
  8
0
  6
BYBLOCK
 62
     0
 10
269.65700651536901
 20
92.330359319553835
 30
0.0
  0
VERTEX
  5
46E
  8
0
  6
BYBLOCK
 62
     0
 10
269.61244351536902
 20
92.287785319553834
 30
0.0
  0
VERTEX
  5
46F
  8
0
  6
BYBLOCK
 62
     0
 10
269.56773051536902
 20
92.244832319553836
 30
0.0
  0
VERTEX
  5
470
  8
0
  6
BYBLOCK
 62
     0
 10
269.52288251536908
 20
92.201533319553846
 30
0.0
  0
VERTEX
  5
471
  8
0
  6
BYBLOCK
 62
     0
 10
269.4779115153691
 20
92.157923319553845
 30
0.0
  0
VERTEX
  5
472
  8
0
  6
BYBLOCK
 62
     0
 10
269.43283151536912
 20
92.114037319553844
 30
0.0
  0
VERTEX
  5
473
  8
0
  6
BYBLOCK
 62
     0
 10
269.38765651536909
 20
92.069910319553856
 30
0.0
  0
VERTEX
  5
474
  8
0
  6
BYBLOCK
 62
     0
 10
269.34239951536898
 20
92.025575319553823
 30
0.0
  0
VERTEX
  5
475
  8
0
  6
BYBLOCK
 62
     0
 10
269.29707551536899
 20
91.981068319553856
 30
0.0
  0
VERTEX
  5
476
  8
0
  6
BYBLOCK
 62
     0
 10
269.25169651536902
 20
91.936422319553856
 30
0.0
  0
VERTEX
  5
477
  8
0
  6
BYBLOCK
 62
     0
 10
269.20627651536898
 20
91.891673319553831
 30
0.0
  0
VERTEX
  5
478
  8
0
  6
BYBLOCK
 62
     0
 10
269.16082951536902
 20
91.846855319553811
 30
0.0
  0
VERTEX
  5
479
  8
0
  6
BYBLOCK
 62
     0
 10
269.11536951536908
 20
91.80200231955385
 30
0.0
  0
SEQEND
  5
47A
  8
0
  6
BYBLOCK
 62
     0
  0
LINE
  5
13F
  8
0
  6
BYBLOCK
 62
     0
 10
268.95126151536903
 20
95.217045319553847
 30
0.0
 11
268.95126151536903
 21
92.790096319553797
 31
0.0
  0
LINE
  5
140
  8
0
  6
BYBLOCK
 62
     0
 10
271.47595551536898
 20
96.673838319553852
 30
0.0
 11
271.47595551536898
 21
95.561000319553841
 31
0.0
  0
ARC
  5
141
  8
0
  6
BYBLOCK
 62
     0
 10
228.47595551536901
 20
78.561000319553841
 30
0.0
 40
60.0
 50
6.7959240000003778
 51
14.737204000000601
  0
ARC
  5
142
  8
0
  6
BYBLOCK
 62
     0
 10
228.47595551536901
 20
78.561000319553841
 30
0.0
 40
60.0
 50
345.26279599999941
 51
353.20407599999959
  0
ARC
  5
143
  8
0
  6
BYBLOCK
 62
     0
 10
283.600813515369
 20
64.061000319553841
 30
0.0
 40
3.0
 50
270.0
 51
345.26279599999941
  0
ARC
  5
144
  8
0
  6
BYBLOCK
 62
     0
 10
253.761544515369
 20
78.561000319553841
 30
0.0
 40
35.0
 50
348.46304100000071
 51
11.5370099999997
  0
ARC
  5
145
  8
0
  6
BYBLOCK
 62
     0
 10
281.47595551536898
 20
96.673838319553852
 30
0.0
 40
2.0
 50
0.0
 51
90.0
  0
POLYLINE
  5
146
  8
0
  6
BYBLOCK
 62
     0
 66
     1
 10
0.0
 20
0.0
 30
0.0
  0
VERTEX
  5
47B
  8
0
  6
BYBLOCK
 62
     0
 10
283.47595551536898
 20
93.561000319553827
 30
0.0
  0
VERTEX
  5
47C
  8
0
  6
BYBLOCK
 62
     0
 10
283.50918151536911
 20
93.547220319553844
 30
0.0
  0
VERTEX
  5
47D
  8
0
  6
BYBLOCK
 62
     0
 10
283.54242051536897
 20
93.533405319553822
 30
0.0
  0
VERTEX
  5
47E
  8
0
  6
BYBLOCK
 62
     0
 10
283.575686515369
 20
93.519522319553843
 30
0.0
  0
VERTEX
  5
47F
  8
0
  6
BYBLOCK
 62
     0
 10
283.60899351536892
 20
93.505534319553803
 30
0.0
  0
VERTEX
  5
480
  8
0
  6
BYBLOCK
 62
     0
 10
283.64235551536899
 20
93.491409319553838
 30
0.0
  0
VERTEX
  5
481
  8
0
  6
BYBLOCK
 62
     0
 10
283.675784515369
 20
93.477111319553828
 30
0.0
  0
VERTEX
  5
482
  8
0
  6
BYBLOCK
 62
     0
 10
283.70929551536898
 20
93.462605319553802
 30
0.0
  0
VERTEX
  5
483
  8
0
  6
BYBLOCK
 62
     0
 10
283.74290251536911
 20
93.447858319553859
 30
0.0
  0
VERTEX
  5
484
  8
0
  6
BYBLOCK
 62
     0
 10
283.77661751536903
 20
93.432834319553834
 30
0.0
  0
VERTEX
  5
485
  8
0
  6
BYBLOCK
 62
     0
 10
283.81045451536897
 20
93.417500319553824
 30
0.0
  0
VERTEX
  5
486
  8
0
  6
BYBLOCK
 62
     0
 10
283.84442851536897
 20
93.401820319553835
 30
0.0
  0
VERTEX
  5
487
  8
0
  6
BYBLOCK
 62
     0
 10
283.878551515369
 20
93.385760319553867
 30
0.0
  0
VERTEX
  5
488
  8
0
  6
BYBLOCK
 62
     0
 10
283.91283851536889
 20
93.369286319553865
 30
0.0
  0
VERTEX
  5
489
  8
0
  6
BYBLOCK
 62
     0
 10
283.94730151536902
 20
93.352363319553845
 30
0.0
  0
VERTEX
  5
48A
  8
0
  6
BYBLOCK
 62
     0
 10
283.9819545153689
 20
93.334956319553854
 30
0.0
  0
VERTEX
  5
48B
  8
0
  6
BYBLOCK
 62
     0
 10
284.01681251536911
 20
93.317031319553834
 30
0.0
  0
VERTEX
  5
48C
  8
0
  6
BYBLOCK
 62
     0
 10
284.05188751536912
 20
93.298553319553847
 30
0.0
  0
VERTEX
  5
48D
  8
0
  6
BYBLOCK
 62
     0
 10
284.08719351536888
 20
93.279489319553875
 30
0.0
  0
VERTEX
  5
48E
  8
0
  6
BYBLOCK
 62
     0
 10
284.12274551536899
 20
93.259802319553842
 30
0.0
  0
VERTEX
  5
48F
  8
0
  6
BYBLOCK
 62
     0
 10
284.15855451536902
 20
93.239460319553871
 30
0.0
  0
VERTEX
  5
490
  8
0
  6
BYBLOCK
 62
     0
 10
284.19463651536898
 20
93.218426319553814
 30
0.0
  0
VERTEX
  5
491
  8
0
  6
BYBLOCK
 62
     0
 10
284.23100351536908
 20
93.196668319553865
 30
0.0
  0
VERTEX
  5
492
  8
0
  6
BYBLOCK
 62
     0
 10
284.26766951536911
 20
93.174149319553862
 30
0.0
  0
VERTEX
  5
493
  8
0
  6
BYBLOCK
 62
     0
 10
284.30464851536902
 20
93.150836319553832
 30
0.0
  0
VERTEX
  5
494
  8
0
  6
BYBLOCK
 62
     0
 10
284.34195451536903
 20
93.126695319553846
 30
0.0
  0
VERTEX
  5
495
  8
0
  6
BYBLOCK
 62
     0
 10
284.37959951536908
 20
93.101689319553827
 30
0.0
  0
VERTEX
  5
496
  8
0
  6
BYBLOCK
 62
     0
 10
284.41759851536909
 20
93.075786319553856
 30
0.0
  0
VERTEX
  5
497
  8
0
  6
BYBLOCK
 62
     0
 10
284.45596451536898
 20
93.048951319553794
 30
0.0
  0
VERTEX
  5
498
  8
0
  6
BYBLOCK
 62
     0
 10
284.49471151536898
 20
93.021148319553845
 30
0.0
  0
VERTEX
  5
499
  8
0
  6
BYBLOCK
 62
     0
 10
284.533853515369
 20
92.992343319553868
 30
0.0
  0
VERTEX
  5
49A
  8
0
  6
BYBLOCK
 62
     0
 10
284.57339851536909
 20
92.962514319553861
 30
0.0
  0
VERTEX
  5
49B
  8
0
  6
BYBLOCK
 62
     0
 10
284.61333751536898
 20
92.931684319553824
 30
0.0
  0
VERTEX
  5
49C
  8
0
  6
BYBLOCK
 62
     0
 10
284.6536575153691
 20
92.899886319553843
 30
0.0
  0
VERTEX
  5
49D
  8
0
  6
BYBLOCK
 62
     0
 10
284.6943445153691
 20
92.867156319553828
 30
0.0
  0
VERTEX
  5
49E
  8
0
  6
BYBLOCK
 62
     0
 10
284.73538551536899
 20
92.833528319553807
 30
0.0
  0
VERTEX
  5
49F
  8
0
  6
BYBLOCK
 62
     0
 10
284.7767665153691
 20
92.799036319553807
 30
0.0
  0
VERTEX
  5
4A0
  8
0
  6
BYBLOCK
 62
     0
 10
284.81847351536902
 20
92.763716319553851
 30
0.0
  0
VERTEX
  5
4A1
  8
0
  6
BYBLOCK
 62
     0
 10
284.860493515369
 20
92.727601319553784
 30
0.0
  0
VERTEX
  5
4A2
  8
0
  6
BYBLOCK
 62
     0
 10
284.90281251536902
 20
92.690726319553846
 30
0.0
  0
VERTEX
  5
4A3
  8
0
  6
BYBLOCK
 62
     0
 10
284.945417515369
 20
92.653126319553806
 30
0.0
  0
VERTEX
  5
4A4
  8
0
  6
BYBLOCK
 62
     0
 10
284.98829451536909
 20
92.614835319553819
 30
0.0
  0
VERTEX
  5
4A5
  8
0
  6
BYBLOCK
 62
     0
 10
285.03142951536898
 20
92.575888319553826
 30
0.0
  0
VERTEX
  5
4A6
  8
0
  6
BYBLOCK
 62
     0
 10
285.074809515369
 20
92.536319319553826
 30
0.0
  0
VERTEX
  5
4A7
  8
0
  6
BYBLOCK
 62
     0
 10
285.118420515369
 20
92.49616331955383
 30
0.0
  0
VERTEX
  5
4A8
  8
0
  6
BYBLOCK
 62
     0
 10
285.16224951536913
 20
92.455454319553823
 30
0.0
  0
VERTEX
  5
4A9
  8
0
  6
BYBLOCK
 62
     0
 10
285.20628151536908
 20
92.414228319553814
 30
0.0
  0
VERTEX
  5
4AA
  8
0
  6
BYBLOCK
 62
     0
 10
285.25050451536902
 20
92.372518319553848
 30
0.0
  0
VERTEX
  5
4AB
  8
0
  6
BYBLOCK
 62
     0
 10
285.29490451536901
 20
92.330359319553835
 30
0.0
  0
VERTEX
  5
4AC
  8
0
  6
BYBLOCK
 62
     0
 10
285.33946751536899
 20
92.287785319553834
 30
0.0
  0
VERTEX
  5
4AD
  8
0
  6
BYBLOCK
 62
     0
 10
285.384180515369
 20
92.244832319553836
 30
0.0
  0
VERTEX
  5
4AE
  8
0
  6
BYBLOCK
 62
     0
 10
285.429029515369
 20
92.201533319553846
 30
0.0
  0
VERTEX
  5
4AF
  8
0
  6
BYBLOCK
 62
     0
 10
285.47400051536903
 20
92.157923319553845
 30
0.0
  0
VERTEX
  5
4B0
  8
0
  6
BYBLOCK
 62
     0
 10
285.51907951536901
 20
92.114037319553844
 30
0.0
  0
VERTEX
  5
4B1
  8
0
  6
BYBLOCK
 62
     0
 10
285.56425451536899
 20
92.069910319553856
 30
0.0
  0
VERTEX
  5
4B2
  8
0
  6
BYBLOCK
 62
     0
 10
285.60951151536909
 20
92.025575319553823
 30
0.0
  0
VERTEX
  5
4B3
  8
0
  6
BYBLOCK
 62
     0
 10
285.65483651536903
 20
91.981068319553856
 30
0.0
  0
VERTEX
  5
4B4
  8
0
  6
BYBLOCK
 62
     0
 10
285.70021551536911
 20
91.936422319553856
 30
0.0
  0
VERTEX
  5
4B5
  8
0
  6
BYBLOCK
 62
     0
 10
285.74563451536898
 20
91.891673319553831
 30
0.0
  0
VERTEX
  5
4B6
  8
0
  6
BYBLOCK
 62
     0
 10
285.79108151536911
 20
91.846855319553811
 30
0.0
  0
VERTEX
  5
4B7
  8
0
  6
BYBLOCK
 62
     0
 10
285.83654251536899
 20
91.80200231955385
 30
0.0
  0
SEQEND
  5
4B8
  8
0
  6
BYBLOCK
 62
     0
  0
POLYLINE
  5
147
  8
0
  6
BYBLOCK
 62
     0
 66
     1
 10
0.0
 20
0.0
 30
0.0
  0
VERTEX
  5
4B9
  8
0
  6
BYBLOCK
 62
     0
 10
281.47595551536898
 20
98.673838319553866
 30
0.0
  0
VERTEX
  5
4BA
  8
0
  6
BYBLOCK
 62
     0
 10
281.53573351536909
 20
98.670435319553874
 30
0.0
  0
VERTEX
  5
4BB
  8
0
  6
BYBLOCK
 62
     0
 10
281.59550551536898
 20
98.666977319553837
 30
0.0
  0
VERTEX
  5
4BC
  8
0
  6
BYBLOCK
 62
     0
 10
281.65526651536902
 20
98.663410319553861
 30
0.0
  0
VERTEX
  5
4BD
  8
0
  6
BYBLOCK
 62
     0
 10
281.71500951536899
 20
98.65968131955384
 30
0.0
  0
VERTEX
  5
4BE
  8
0
  6
BYBLOCK
 62
     0
 10
281.77473051536901
 20
98.655734319553815
 30
0.0
  0
VERTEX
  5
4BF
  8
0
  6
BYBLOCK
 62
     0
 10
281.834421515369
 20
98.651516319553878
 30
0.0
  0
VERTEX
  5
4C0
  8
0
  6
BYBLOCK
 62
     0
 10
281.89407951536901
 20
98.646972319553868
 30
0.0
  0
VERTEX
  5
4C1
  8
0
  6
BYBLOCK
 62
     0
 10
281.95369651536907
 20
98.642048319553851
 30
0.0
  0
VERTEX
  5
4C2
  8
0
  6
BYBLOCK
 62
     0
 10
282.01326751536902
 20
98.63669031955385
 30
0.0
  0
VERTEX
  5
4C3
  8
0
  6
BYBLOCK
 62
     0
 10
282.0727865153691
 20
98.630843319553847
 30
0.0
  0
VERTEX
  5
4C4
  8
0
  6
BYBLOCK
 62
     0
 10
282.1322485153691
 20
98.624453319553837
 30
0.0
  0
VERTEX
  5
4C5
  8
0
  6
BYBLOCK
 62
     0
 10
282.19164751536903
 20
98.617466319553841
 30
0.0
  0
VERTEX
  5
4C6
  8
0
  6
BYBLOCK
 62
     0
 10
282.25097751536902
 20
98.609828319553799
 30
0.0
  0
VERTEX
  5
4C7
  8
0
  6
BYBLOCK
 62
     0
 10
282.31023251536902
 20
98.601483319553836
 30
0.0
  0
VERTEX
  5
4C8
  8
0
  6
BYBLOCK
 62
     0
 10
282.36940751536901
 20
98.592379319553856
 30
0.0
  0
VERTEX
  5
4C9
  8
0
  6
BYBLOCK
 62
     0
 10
282.42849551536898
 20
98.582461319553815
 30
0.0
  0
VERTEX
  5
4CA
  8
0
  6
BYBLOCK
 62
     0
 10
282.4874925153689
 20
98.571673319553838
 30
0.0
  0
VERTEX
  5
4CB
  8
0
  6
BYBLOCK
 62
     0
 10
282.54639151536912
 20
98.559963319553844
 30
0.0
  0
VERTEX
  5
4CC
  8
0
  6
BYBLOCK
 62
     0
 10
282.60518751536898
 20
98.547276319553816
 30
0.0
  0
VERTEX
  5
4CD
  8
0
  6
BYBLOCK
 62
     0
 10
282.66387451536912
 20
98.533557319553836
 30
0.0
  0
VERTEX
  5
4CE
  8
0
  6
BYBLOCK
 62
     0
 10
282.72244651536897
 20
98.518753319553824
 30
0.0
  0
VERTEX
  5
4CF
  8
0
  6
BYBLOCK
 62
     0
 10
282.78089751536902
 20
98.502809319553805
 30
0.0
  0
VERTEX
  5
4D0
  8
0
  6
BYBLOCK
 62
     0
 10
282.83922251536899
 20
98.485670319553833
 30
0.0
  0
VERTEX
  5
4D1
  8
0
  6
BYBLOCK
 62
     0
 10
282.897415515369
 20
98.467283319553886
 30
0.0
  0
VERTEX
  5
4D2
  8
0
  6
BYBLOCK
 62
     0
 10
282.95547051536897
 20
98.447592319553863
 30
0.0
  0
VERTEX
  5
4D3
  8
0
  6
BYBLOCK
 62
     0
 10
283.01338151536908
 20
98.426545319553838
 30
0.0
  0
VERTEX
  5
4D4
  8
0
  6
BYBLOCK
 62
     0
 10
283.0711445153691
 20
98.404086319553826
 30
0.0
  0
VERTEX
  5
4D5
  8
0
  6
BYBLOCK
 62
     0
 10
283.128751515369
 20
98.380162319553861
 30
0.0
  0
VERTEX
  5
4D6
  8
0
  6
BYBLOCK
 62
     0
 10
283.18619751536897
 20
98.35471731955387
 30
0.0
  0
VERTEX
  5
4D7
  8
0
  6
BYBLOCK
 62
     0
 10
283.24347751536908
 20
98.327698319553875
 30
0.0
  0
VERTEX
  5
4D8
  8
0
  6
BYBLOCK
 62
     0
 10
283.30058051536889
 20
98.299068319553825
 30
0.0
  0
VERTEX
  5
4D9
  8
0
  6
BYBLOCK
 62
     0
 10
283.357477515369
 20
98.268861319553835
 30
0.0
  0
VERTEX
  5
4DA
  8
0
  6
BYBLOCK
 62
     0
 10
283.41413351536897
 20
98.237128319553847
 30
0.0
  0
VERTEX
  5
4DB
  8
0
  6
BYBLOCK
 62
     0
 10
283.47051551536907
 20
98.203920319553845
 30
0.0
  0
VERTEX
  5
4DC
  8
0
  6
BYBLOCK
 62
     0
 10
283.52658851536899
 20
98.169289319553855
 30
0.0
  0
VERTEX
  5
4DD
  8
0
  6
BYBLOCK
 62
     0
 10
283.58231851536902
 20
98.133286319553804
 30
0.0
  0
VERTEX
  5
4DE
  8
0
  6
BYBLOCK
 62
     0
 10
283.63767151536899
 20
98.095963319553846
 30
0.0
  0
VERTEX
  5
4DF
  8
0
  6
BYBLOCK
 62
     0
 10
283.69261451536892
 20
98.057371319553852
 30
0.0
  0
VERTEX
  5
4E0
  8
0
  6
BYBLOCK
 62
     0
 10
283.747112515369
 20
98.017561319553806
 30
0.0
  0
VERTEX
  5
4E1
  8
0
  6
BYBLOCK
 62
     0
 10
283.80113151536909
 20
97.976584319553808
 30
0.0
  0
VERTEX
  5
4E2
  8
0
  6
BYBLOCK
 62
     0
 10
283.85463751536901
 20
97.934493319553837
 30
0.0
  0
VERTEX
  5
4E3
  8
0
  6
BYBLOCK
 62
     0
 10
283.90759651536899
 20
97.891337319553827
 30
0.0
  0
VERTEX
  5
4E4
  8
0
  6
BYBLOCK
 62
     0
 10
283.95997451536903
 20
97.847170319553882
 30
0.0
  0
VERTEX
  5
4E5
  8
0
  6
BYBLOCK
 62
     0
 10
284.01173651536908
 20
97.802041319553837
 30
0.0
  0
VERTEX
  5
4E6
  8
0
  6
BYBLOCK
 62
     0
 10
284.06284951536901
 20
97.756003319553827
 30
0.0
  0
VERTEX
  5
4E7
  8
0
  6
BYBLOCK
 62
     0
 10
284.11327951536902
 20
97.709107319553823
 30
0.0
  0
VERTEX
  5
4E8
  8
0
  6
BYBLOCK
 62
     0
 10
284.16299151536901
 20
97.661404319553867
 30
0.0
  0
VERTEX
  5
4E9
  8
0
  6
BYBLOCK
 62
     0
 10
284.21195251536909
 20
97.612945319553887
 30
0.0
  0
VERTEX
  5
4EA
  8
0
  6
BYBLOCK
 62
     0
 10
284.26012851536899
 20
97.563782319553795
 30
0.0
  0
VERTEX
  5
4EB
  8
0
  6
BYBLOCK
 62
     0
 10
284.30748351536897
 20
97.513967319553842
 30
0.0
  0
VERTEX
  5
4EC
  8
0
  6
BYBLOCK
 62
     0
 10
284.35398551536912
 20
97.463550319553875
 30
0.0
  0
VERTEX
  5
4ED
  8
0
  6
BYBLOCK
 62
     0
 10
284.39960051536912
 20
97.41258331955386
 30
0.0
  0
VERTEX
  5
4EE
  8
0
  6
BYBLOCK
 62
     0
 10
284.444292515369
 20
97.361117319553841
 30
0.0
  0
VERTEX
  5
4EF
  8
0
  6
BYBLOCK
 62
     0
 10
284.48802951536902
 20
97.309204319553814
 30
0.0
  0
VERTEX
  5
4F0
  8
0
  6
BYBLOCK
 62
     0
 10
284.5307755153691
 20
97.256895319553848
 30
0.0
  0
VERTEX
  5
4F1
  8
0
  6
BYBLOCK
 62
     0
 10
284.57249851536909
 20
97.204242319553842
 30
0.0
  0
VERTEX
  5
4F2
  8
0
  6
BYBLOCK
 62
     0
 10
284.61316251536903
 20
97.151295319553867
 30
0.0
  0
VERTEX
  5
4F3
  8
0
  6
BYBLOCK
 62
     0
 10
284.65273451536899
 20
97.098106319553835
 30
0.0
  0
VERTEX
  5
4F4
  8
0
  6
BYBLOCK
 62
     0
 10
284.69118051536901
 20
97.044727319553843
 30
0.0
  0
VERTEX
  5
4F5
  8
0
  6
BYBLOCK
 62
     0
 10
284.72846651536901
 20
96.991208319553834
 30
0.0
  0
VERTEX
  5
4F6
  8
0
  6
BYBLOCK
 62
     0
 10
284.76456951536909
 20
96.937594319553853
 30
0.0
  0
VERTEX
  5
4F7
  8
0
  6
BYBLOCK
 62
     0
 10
284.79951851536902
 20
96.883895319553872
 30
0.0
  0
VERTEX
  5
4F8
  8
0
  6
BYBLOCK
 62
     0
 10
284.83335251536909
 20
96.830114319553843
 30
0.0
  0
VERTEX
  5
4F9
  8
0
  6
BYBLOCK
 62
     0
 10
284.86611151536903
 20
96.776253319553817
 30
0.0
  0
VERTEX
  5
4FA
  8
0
  6
BYBLOCK
 62
     0
 10
284.89783551536908
 20
96.722317319553852
 30
0.0
  0
VERTEX
  5
4FB
  8
0
  6
BYBLOCK
 62
     0
 10
284.92856451536892
 20
96.668307319553847
 30
0.0
  0
VERTEX
  5
4FC
  8
0
  6
BYBLOCK
 62
     0
 10
284.95833751536901
 20
96.614227319553834
 30
0.0
  0
VERTEX
  5
4FD
  8
0
  6
BYBLOCK
 62
     0
 10
284.98719451536903
 20
96.560079319553836
 30
0.0
  0
VERTEX
  5
4FE
  8
0
  6
BYBLOCK
 62
     0
 10
285.01517551536898
 20
96.505867319553829
 30
0.0
  0
VERTEX
  5
4FF
  8
0
  6
BYBLOCK
 62
     0
 10
285.042320515369
 20
96.451594319553863
 30
0.0
  0
VERTEX
  5
500
  8
0
  6
BYBLOCK
 62
     0
 10
285.06866951536909
 20
96.397262319553874
 30
0.0
  0
VERTEX
  5
501
  8
0
  6
BYBLOCK
 62
     0
 10
285.09426251536911
 20
96.342874319553843
 30
0.0
  0
VERTEX
  5
502
  8
0
  6
BYBLOCK
 62
     0
 10
285.119137515369
 20
96.288434319553815
 30
0.0
  0
VERTEX
  5
503
  8
0
  6
BYBLOCK
 62
     0
 10
285.14333651536913
 20
96.233944319553814
 30
0.0
  0
VERTEX
  5
504
  8
0
  6
BYBLOCK
 62
     0
 10
285.1668985153691
 20
96.179407319553846
 30
0.0
  0
VERTEX
  5
505
  8
0
  6
BYBLOCK
 62
     0
 10
285.1898635153691
 20
96.124826319553847
 30
0.0
  0
VERTEX
  5
506
  8
0
  6
BYBLOCK
 62
     0
 10
285.21227051536903
 20
96.070204319553852
 30
0.0
  0
VERTEX
  5
507
  8
0
  6
BYBLOCK
 62
     0
 10
285.23416051536913
 20
96.015544319553854
 30
0.0
  0
VERTEX
  5
508
  8
0
  6
BYBLOCK
 62
     0
 10
285.25557251536901
 20
95.960849319553859
 30
0.0
  0
VERTEX
  5
509
  8
0
  6
BYBLOCK
 62
     0
 10
285.27654651536898
 20
95.906121319553847
 30
0.0
  0
VERTEX
  5
50A
  8
0
  6
BYBLOCK
 62
     0
 10
285.29712251536893
 20
95.851365319553835
 30
0.0
  0
VERTEX
  5
50B
  8
0
  6
BYBLOCK
 62
     0
 10
285.3173405153691
 20
95.796582319553806
 30
0.0
  0
VERTEX
  5
50C
  8
0
  6
BYBLOCK
 62
     0
 10
285.33723951536888
 20
95.741775319553824
 30
0.0
  0
VERTEX
  5
50D
  8
0
  6
BYBLOCK
 62
     0
 10
285.35686051536908
 20
95.686948319553835
 30
0.0
  0
VERTEX
  5
50E
  8
0
  6
BYBLOCK
 62
     0
 10
285.37624151536909
 20
95.632104319553832
 30
0.0
  0
VERTEX
  5
50F
  8
0
  6
BYBLOCK
 62
     0
 10
285.39542451536909
 20
95.577245319553853
 30
0.0
  0
VERTEX
  5
510
  8
0
  6
BYBLOCK
 62
     0
 10
285.41444751536898
 20
95.522374319553876
 30
0.0
  0
VERTEX
  5
511
  8
0
  6
BYBLOCK
 62
     0
 10
285.433351515369
 20
95.467495319553834
 30
0.0
  0
VERTEX
  5
512
  8
0
  6
BYBLOCK
 62
     0
 10
285.45217551536899
 20
95.412609319553823
 30
0.0
  0
VERTEX
  5
513
  8
0
  6
BYBLOCK
 62
     0
 10
285.47096051536909
 20
95.357721319553832
 30
0.0
  0
SEQEND
  5
514
  8
0
  6
BYBLOCK
 62
     0
  0
POLYLINE
  5
148
  8
0
  6
BYBLOCK
 62
     0
 66
     1
 10
0.0
 20
0.0
 30
0.0
  0
VERTEX
  5
515
  8
0
  6
BYBLOCK
 62
     0
 10
285.44796451536899
 20
95.424902319553837
 30
0.0
  0
VERTEX
  5
516
  8
0
  6
BYBLOCK
 62
     0
 10
285.45858651536912
 20
95.390756319553873
 30
0.0
  0
VERTEX
  5
517
  8
0
  6
BYBLOCK
 62
     0
 10
285.46920351536897
 20
95.356614319553842
 30
0.0
  0
VERTEX
  5
518
  8
0
  6
BYBLOCK
 62
     0
 10
285.47981051536902
 20
95.322484319553837
 30
0.0
  0
VERTEX
  5
519
  8
0
  6
BYBLOCK
 62
     0
 10
285.490403515369
 20
95.288371319553846
 30
0.0
  0
VERTEX
  5
51A
  8
0
  6
BYBLOCK
 62
     0
 10
285.50097651536902
 20
95.254279319553859
 30
0.0
  0
VERTEX
  5
51B
  8
0
  6
BYBLOCK
 62
     0
 10
285.51152551536899
 20
95.220215319553859
 30
0.0
  0
VERTEX
  5
51C
  8
0
  6
BYBLOCK
 62
     0
 10
285.52204451536898
 20
95.186185319553815
 30
0.0
  0
VERTEX
  5
51D
  8
0
  6
BYBLOCK
 62
     0
 10
285.53253051536888
 20
95.152193319553874
 30
0.0
  0
VERTEX
  5
51E
  8
0
  6
BYBLOCK
 62
     0
 10
285.54297651536899
 20
95.118245319553864
 30
0.0
  0
VERTEX
  5
51F
  8
0
  6
BYBLOCK
 62
     0
 10
285.5533795153691
 20
95.084347319553842
 30
0.0
  0
VERTEX
  5
520
  8
0
  6
BYBLOCK
 62
     0
 10
285.56373351536911
 20
95.050505319553849
 30
0.0
  0
VERTEX
  5
521
  8
0
  6
BYBLOCK
 62
     0
 10
285.57403351536902
 20
95.016723319553805
 30
0.0
  0
VERTEX
  5
522
  8
0
  6
BYBLOCK
 62
     0
 10
285.58427551536909
 20
94.983008319553846
 30
0.0
  0
VERTEX
  5
523
  8
0
  6
BYBLOCK
 62
     0
 10
285.59445451536902
 20
94.949364319553865
 30
0.0
  0
VERTEX
  5
524
  8
0
  6
BYBLOCK
 62
     0
 10
285.60456451536902
 20
94.915798319553858
 30
0.0
  0
VERTEX
  5
525
  8
0
  6
BYBLOCK
 62
     0
 10
285.61460151536897
 20
94.882314319553871
 30
0.0
  0
VERTEX
  5
526
  8
0
  6
BYBLOCK
 62
     0
 10
285.62456151536912
 20
94.848920319553869
 30
0.0
  0
VERTEX
  5
527
  8
0
  6
BYBLOCK
 62
     0
 10
285.63443851536903
 20
94.815619319553832
 30
0.0
  0
VERTEX
  5
528
  8
0
  6
BYBLOCK
 62
     0
 10
285.6442275153691
 20
94.782417319553815
 30
0.0
  0
VERTEX
  5
529
  8
0
  6
BYBLOCK
 62
     0
 10
285.65392351536912
 20
94.749321319553815
 30
0.0
  0
VERTEX
  5
52A
  8
0
  6
BYBLOCK
 62
     0
 10
285.66352251536892
 20
94.716335319553878
 30
0.0
  0
VERTEX
  5
52B
  8
0
  6
BYBLOCK
 62
     0
 10
285.67301951536911
 20
94.683466319553872
 30
0.0
  0
VERTEX
  5
52C
  8
0
  6
BYBLOCK
 62
     0
 10
285.68240951536899
 20
94.650718319553846
 30
0.0
  0
VERTEX
  5
52D
  8
0
  6
BYBLOCK
 62
     0
 10
285.69168651536899
 20
94.618097319553826
 30
0.0
  0
VERTEX
  5
52E
  8
0
  6
BYBLOCK
 62
     0
 10
285.70084751536899
 20
94.585608319553842
 30
0.0
  0
VERTEX
  5
52F
  8
0
  6
BYBLOCK
 62
     0
 10
285.70988651536908
 20
94.553258319553834
 30
0.0
  0
VERTEX
  5
530
  8
0
  6
BYBLOCK
 62
     0
 10
285.71879851536909
 20
94.521052319553846
 30
0.0
  0
VERTEX
  5
531
  8
0
  6
BYBLOCK
 62
     0
 10
285.72757951536897
 20
94.488995319553851
 30
0.0
  0
VERTEX
  5
532
  8
0
  6
BYBLOCK
 62
     0
 10
285.73622451536897
 20
94.457093319553834
 30
0.0
  0
VERTEX
  5
533
  8
0
  6
BYBLOCK
 62
     0
 10
285.74472751536911
 20
94.42535131955384
 30
0.0
  0
SEQEND
  5
534
  8
0
  6
BYBLOCK
 62
     0
  0
ARC
  5
149
  8
0
  6
BYBLOCK
 62
     0
 10
281.47595551536898
 20
95.561000319553841
 30
0.0
 40
2.0
 50
270.0
 51
0.0
  0
ARC
  5
14A
  8
0
  6
BYBLOCK
 62
     0
 10
283.600813515369
 20
93.061000319553841
 30
0.0
 40
3.0
 50
14.737204000000601
 51
51.995966999999268
  0
ARC
  5
14B
  8
0
  6
BYBLOCK
 62
     0
 10
283.600813515369
 20
93.061000319553841
 30
0.0
 40
3.0
 50
14.737204000000601
 51
51.995966999999268
  0
LINE
  5
14C
  8
0
  6
BYBLOCK
 62
     0
 10
283.47595551536898
 20
96.673838319553852
 30
0.0
 11
283.47595551536898
 21
95.561000319553841
 31
0.0
  0
POLYLINE
  5
14D
  8
0
  6
BYBLOCK
 62
     0
 66
     1
 10
0.0
 20
0.0
 30
0.0
  0
VERTEX
  5
535
  8
0
  6
BYBLOCK
 62
     0
 10
237.47595551536901
 20
252.13257031955379
 30
0.0
  0
VERTEX
  5
536
  8
0
  6
BYBLOCK
 62
     0
 10
238.14162851536909
 20
252.33984931955379
 30
0.0
  0
VERTEX
  5
537
  8
0
  6
BYBLOCK
 62
     0
 10
238.45284551536901
 20
252.55606131955369
 30
0.0
  0
VERTEX
  5
538
  8
0
  6
BYBLOCK
 62
     0
 10
238.40015051536901
 20
252.77463831955379
 30
0.0
  0
VERTEX
  5
539
  8
0
  6
BYBLOCK
 62
     0
 10
237.985145515369
 20
252.9889373195538
 30
0.0
  0
VERTEX
  5
53A
  8
0
  6
BYBLOCK
 62
     0
 10
237.22043951536889
 20
253.19244931955379
 30
0.0
  0
VERTEX
  5
53B
  8
0
  6
BYBLOCK
 62
     0
 10
236.12926751536901
 20
253.3789883195538
 30
0.0
  0
VERTEX
  5
53C
  8
0
  6
BYBLOCK
 62
     0
 10
234.74478451536899
 20
253.54288731955381
 30
0.0
  0
VERTEX
  5
53D
  8
0
  6
BYBLOCK
 62
     0
 10
233.10905751536899
 20
253.67916631955379
 30
0.0
  0
VERTEX
  5
53E
  8
0
  6
BYBLOCK
 62
     0
 10
231.271787515369
 20
253.7836843195538
 30
0.0
  0
VERTEX
  5
53F
  8
0
  6
BYBLOCK
 62
     0
 10
229.28879751536911
 20
253.8532653195538
 30
0.0
  0
VERTEX
  5
540
  8
0
  6
BYBLOCK
 62
     0
 10
227.22034151536911
 20
253.8857973195538
 30
0.0
  0
VERTEX
  5
541
  8
0
  6
BYBLOCK
 62
     0
 10
225.12926751536901
 20
253.88028831955381
 30
0.0
  0
VERTEX
  5
542
  8
0
  6
BYBLOCK
 62
     0
 10
223.07911251536899
 20
253.8369093195538
 30
0.0
  0
VERTEX
  5
543
  8
0
  6
BYBLOCK
 62
     0
 10
221.13216751536899
 20
253.75697531955379
 30
0.0
  0
VERTEX
  5
544
  8
0
  6
BYBLOCK
 62
     0
 10
219.34759151536909
 20
253.64291731955379
 30
0.0
  0
VERTEX
  5
545
  8
0
  6
BYBLOCK
 62
     0
 10
217.77960751536909
 20
253.49819931955381
 30
0.0
  0
VERTEX
  5
546
  8
0
  6
BYBLOCK
 62
     0
 10
216.475857515369
 20
253.32721931955379
 30
0.0
  0
VERTEX
  5
547
  8
0
  6
BYBLOCK
 62
     0
 10
215.47595551536901
 20
253.13517231955379
 30
0.0
  0
VERTEX
  5
548
  8
0
  6
BYBLOCK
 62
     0
 10
214.81028251536901
 20
252.92789331955379
 30
0.0
  0
VERTEX
  5
549
  8
0
  6
BYBLOCK
 62
     0
 10
214.4990655153691
 20
252.71168031955369
 30
0.0
  0
VERTEX
  5
54A
  8
0
  6
BYBLOCK
 62
     0
 10
214.5517605153691
 20
252.4931033195538
 30
0.0
  0
VERTEX
  5
54B
  8
0
  6
BYBLOCK
 62
     0
 10
214.96676551536899
 20
252.27880431955381
 30
0.0
  0
VERTEX
  5
54C
  8
0
  6
BYBLOCK
 62
     0
 10
215.47595551536901
 20
252.13257031955379
 30
0.0
  0
SEQEND
  5
54D
  8
0
  6
BYBLOCK
 62
     0
  0
POLYLINE
  5
14E
  8
0
  6
BYBLOCK
 62
     0
 66
     1
 10
0.0
 20
0.0
 30
0.0
  0
VERTEX
  5
54E
  8
0
  6
BYBLOCK
 62
     0
 10
238.5705235153691
 20
253.86358631955369
 30
0.0
  0
VERTEX
  5
54F
  8
0
  6
BYBLOCK
 62
     0
 10
238.32382551536909
 20
254.0823953195538
 30
0.0
  0
VERTEX
  5
550
  8
0
  6
BYBLOCK
 62
     0
 10
237.71713651536911
 20
254.29340631955381
 30
0.0
  0
VERTEX
  5
551
  8
0
  6
BYBLOCK
 62
     0
 10
236.76888951536901
 20
254.49020631955381
 30
0.0
  0
VERTEX
  5
552
  8
0
  6
BYBLOCK
 62
     0
 10
235.507896515369
 20
254.66681631955379
 30
0.0
  0
VERTEX
  5
553
  8
0
  6
BYBLOCK
 62
     0
 10
233.97247351536899
 20
254.81786931955381
 30
0.0
  0
VERTEX
  5
554
  8
0
  6
BYBLOCK
 62
     0
 10
232.20927251536901
 20
254.93877731955379
 30
0.0
  0
VERTEX
  5
555
  8
0
  6
BYBLOCK
 62
     0
 10
230.271866515369
 20
255.02586431955379
 30
0.0
  0
VERTEX
  5
556
  8
0
  6
BYBLOCK
 62
     0
 10
228.21912451536909
 20
255.07648631955379
 30
0.0
  0
VERTEX
  5
557
  8
0
  6
BYBLOCK
 62
     0
 10
226.11341751536901
 20
255.0891033195538
 30
0.0
  0
VERTEX
  5
558
  8
0
  6
BYBLOCK
 62
     0
 10
224.018725515369
 20
255.06333331955381
 30
0.0
  0
VERTEX
  5
559
  8
0
  6
BYBLOCK
 62
     0
 10
221.99869551536901
 20
254.9999593195538
 30
0.0
  0
VERTEX
  5
55A
  8
0
  6
BYBLOCK
 62
     0
 10
220.11470451536911
 20
254.9009063195538
 30
0.0
  0
VERTEX
  5
55B
  8
0
  6
BYBLOCK
 62
     0
 10
218.423997515369
 20
254.7691843195538
 30
0.0
  0
VERTEX
  5
55C
  8
0
  6
BYBLOCK
 62
     0
 10
216.9779445153691
 20
254.60879531955379
 30
0.0
  0
VERTEX
  5
55D
  8
0
  6
BYBLOCK
 62
     0
 10
215.82048351536909
 20
254.4246133195538
 30
0.0
  0
VERTEX
  5
55E
  8
0
  6
BYBLOCK
 62
     0
 10
214.9867845153691
 20
254.22223331955379
 30
0.0
  0
VERTEX
  5
55F
  8
0
  6
BYBLOCK
 62
     0
 10
214.50217751536911
 20
254.0078053195538
 30
0.0
  0
VERTEX
  5
560
  8
0
  6
BYBLOCK
 62
     0
 10
214.38913951536901
 20
253.88470331955369
 30
0.0
  0
SEQEND
  5
561
  8
0
  6
BYBLOCK
 62
     0
  0
POLYLINE
  5
14F
  8
0
  6
BYBLOCK
 62
     0
 66
     1
 10
0.0
 20
0.0
 30
0.0
  0
VERTEX
  5
562
  8
0
  6
BYBLOCK
 62
     0
 10
238.47595551536901
 20
251.44044431955379
 30
0.0
  0
VERTEX
  5
563
  8
0
  6
BYBLOCK
 62
     0
 10
238.29364851536911
 20
251.65825931955379
 30
0.0
  0
VERTEX
  5
564
  8
0
  6
BYBLOCK
 62
     0
 10
237.752267515369
 20
251.8694543195538
 30
0.0
  0
VERTEX
  5
565
  8
0
  6
BYBLOCK
 62
     0
 10
236.86826051536909
 20
252.06761531955379
 30
0.0
  0
VERTEX
  5
566
  8
0
  6
BYBLOCK
 62
     0
 10
235.66848851536901
 20
252.24672031955379
 30
0.0
  0
VERTEX
  5
567
  8
0
  6
BYBLOCK
 62
     0
 10
234.18940651536909
 20
252.40132631955379
 30
0.0
  0
VERTEX
  5
568
  8
0
  6
BYBLOCK
 62
     0
 10
232.47595551536901
 20
252.52673631955381
 30
0.0
  0
VERTEX
  5
569
  8
0
  6
BYBLOCK
 62
     0
 10
230.58019751536901
 20
252.61914031955379
 30
0.0
  0
VERTEX
  5
56A
  8
0
  6
BYBLOCK
 62
     0
 10
228.55973351536909
 20
252.67573031955379
 30
0.0
  0
VERTEX
  5
56B
  8
0
  6
BYBLOCK
 62
     0
 10
226.47595551536901
 20
252.6947863195538
 30
0.0
  0
VERTEX
  5
56C
  8
0
  6
BYBLOCK
 62
     0
 10
224.39217751536901
 20
252.67573031955379
 30
0.0
  0
VERTEX
  5
56D
  8
0
  6
BYBLOCK
 62
     0
 10
222.37171351536901
 20
252.61914031955379
 30
0.0
  0
VERTEX
  5
56E
  8
0
  6
BYBLOCK
 62
     0
 10
220.47595551536901
 20
252.52673631955381
 30
0.0
  0
VERTEX
  5
56F
  8
0
  6
BYBLOCK
 62
     0
 10
218.76250451536899
 20
252.40132631955379
 30
0.0
  0
VERTEX
  5
570
  8
0
  6
BYBLOCK
 62
     0
 10
217.28342251536901
 20
252.24672031955379
 30
0.0
  0
VERTEX
  5
571
  8
0
  6
BYBLOCK
 62
     0
 10
216.08365051536899
 20
252.06761531955379
 30
0.0
  0
VERTEX
  5
572
  8
0
  6
BYBLOCK
 62
     0
 10
215.19964451536899
 20
251.8694543195538
 30
0.0
  0
VERTEX
  5
573
  8
0
  6
BYBLOCK
 62
     0
 10
214.65826251536899
 20
251.65825931955379
 30
0.0
  0
VERTEX
  5
574
  8
0
  6
BYBLOCK
 62
     0
 10
214.47595551536901
 20
251.44044431955379
 30
0.0
  0
SEQEND
  5
575
  8
0
  6
BYBLOCK
 62
     0
  0
ARC
  5
150
  8
0
  6
BYBLOCK
 62
     0
 10
226.47595551536901
 20
252.3074583195538
 30
0.0
 40
23.0
 50
58.852643999996872
 51
121.1473560000031
  0
LINE
  5
151
  8
0
  6
BYBLOCK
 62
     0
 10
215.97595551536901
 20
240.50070431955379
 30
0.0
 11
214.47595551536901
 21
243.28440831955379
 31
0.0
  0
ARC
  5
152
  8
0
  6
BYBLOCK
 62
     0
 10
239.10152451536911
 20
206.08836531955379
 30
0.0
 40
40.0
 50
137.41887199999829
 51
158.09966199999801
  0
LINE
  5
153
  8
0
  6
BYBLOCK
 62
     0
 10
200.47595551536901
 20
193.56100031955381
 30
0.0
 11
200.47595551536901
 21
146.56100031955381
 31
0.0
  0
LINE
  5
154
  8
0
  6
BYBLOCK
 62
     0
 10
200.47595551536901
 20
146.56100031955381
 30
0.0
 11
212.47595551536901
 21
146.56100031955381
 31
0.0
  0
LINE
  5
155
  8
0
  6
BYBLOCK
 62
     0
 10
200.47595551536901
 20
146.06100031955381
 30
0.0
 11
212.47595551536901
 21
146.06100031955381
 31
0.0
  0
LINE
  5
156
  8
0
  6
BYBLOCK
 62
     0
 10
203.42595551536911
 20
146.56100031955381
 30
0.0
 11
203.42595551536911
 21
146.06100031955381
 31
0.0
  0
ARC
  5
157
  8
0
  6
BYBLOCK
 62
     0
 10
230.47595551536901
 20
193.56100031955381
 30
0.0
 40
30.0
 50
159.5126850000004
 51
180.0
  0
ARC
  5
158
  8
0
  6
BYBLOCK
 62
     0
 10
226.47595551536901
 20
209.5904553195538
 30
0.0
 40
26.649699999999999
 50
167.34606799999889
 51
170.06298700000011
  0
LINE
  5
159
  8
0
  6
BYBLOCK
 62
     0
 10
212.47595551536901
 20
204.06100031955381
 30
0.0
 11
199.97595551536901
 21
204.06100031955381
 31
0.0
  0
ARC
  5
15A
  8
0
  6
BYBLOCK
 62
     0
 10
249.47595551536901
 20
205.56100031955381
 30
0.0
 40
50.0
 50
170.06298700000011
 51
180.0
  0
ARC
  5
15B
  8
0
  6
BYBLOCK
 62
     0
 10
199.97595551536901
 20
204.56100031955381
 30
0.0
 40
0.5
 50
180.0
 51
270.0
  0
LINE
  5
15C
  8
0
  6
BYBLOCK
 62
     0
 10
199.47595551536901
 20
205.56100031955381
 30
0.0
 11
199.47595551536901
 21
204.56100031955381
 31
0.0
  0
ARC
  5
15D
  8
0
  6
BYBLOCK
 62
     0
 10
225.19591551536899
 20
211.71292631955379
 30
0.0
 40
25.0
 50
157.78224700000021
 51
171.45313100000021
  0
ARC
  5
15E
  8
0
  6
BYBLOCK
 62
     0
 10
218.97595551536901
 20
250.84847431955379
 30
0.0
 40
8.5
 50
180.0
 51
238.0342809999988
  0
LINE
  5
15F
  8
0
  6
BYBLOCK
 62
     0
 10
214.47595551536901
 20
243.28440831955379
 30
0.0
 11
214.47595551536901
 21
251.44044431955379
 31
0.0
  0
ARC
  5
160
  8
0
  6
BYBLOCK
 62
     0
 10
249.28111151536899
 20
222.84916231955381
 30
0.0
 40
40.0
 50
156.94493200000039
 51
160.0367389999999
  0
ARC
  5
161
  8
0
  6
BYBLOCK
 62
     0
 10
202.28552451536899
 20
239.92003831955381
 30
0.0
 40
10.0
 50
317.41887199999832
 51
340.0367389999999
  0
ARC
  5
162
  8
0
  6
BYBLOCK
 62
     0
 10
267.67724951536911
 20
281.46322031955378
 30
0.0
 40
60.0
 50
198.97568899999899
 51
207.3089219999994
  0
LINE
  5
163
  8
0
  6
BYBLOCK
 62
     0
 10
210.47595551536901
 20
264.7171263195537
 30
0.0
 11
210.47595551536901
 21
250.84847431955379
 31
0.0
  0
ARC
  5
164
  8
0
  6
BYBLOCK
 62
     0
 10
213.47595551536901
 20
253.47715731955381
 30
0.0
 40
1.0
 50
0.0000000008695891
 51
27.308921999999399
  0
LINE
  5
165
  8
0
  6
BYBLOCK
 62
     0
 10
214.47595551536901
 20
252.6338713195538
 30
0.0
 11
214.47595551536901
 21
253.47715731955381
 31
0.0
  0
ARC
  5
166
  8
0
  6
BYBLOCK
 62
     0
 10
218.97595551536901
 20
264.7171263195537
 30
0.0
 40
8.5
 50
121.1472770000014
 51
180.0
  0
ARC
  5
167
  8
0
  6
BYBLOCK
 62
     0
 10
213.850386515369
 20
206.08836531955379
 30
0.0
 40
40.0
 50
21.900338000001899
 51
42.581128000001669
  0
LINE
  5
168
  8
0
  6
BYBLOCK
 62
     0
 10
252.47595551536901
 20
193.56100031955381
 30
0.0
 11
252.47595551536901
 21
146.56100031955381
 31
0.0
  0
LINE
  5
169
  8
0
  6
BYBLOCK
 62
     0
 10
252.47595551536901
 20
146.56100031955381
 30
0.0
 11
240.47595551536901
 21
146.56100031955381
 31
0.0
  0
LINE
  5
16A
  8
0
  6
BYBLOCK
 62
     0
 10
240.47595551536901
 20
146.06100031955381
 30
0.0
 11
252.47595551536901
 21
146.06100031955381
 31
0.0
  0
LINE
  5
16B
  8
0
  6
BYBLOCK
 62
     0
 10
249.52595551536899
 20
146.56100031955381
 30
0.0
 11
249.52595551536899
 21
146.06100031955381
 31
0.0
  0
LINE
  5
16C
  8
0
  6
BYBLOCK
 62
     0
 10
240.47595551536901
 20
204.06100031955381
 30
0.0
 11
252.97595551536901
 21
204.06100031955381
 31
0.0
  0
ARC
  5
16D
  8
0
  6
BYBLOCK
 62
     0
 10
222.47595551536901
 20
193.56100031955381
 30
0.0
 40
30.0
 50
0.0
 51
20.487314999999569
  0
ARC
  5
16E
  8
0
  6
BYBLOCK
 62
     0
 10
226.47595551536901
 20
209.5904553195538
 30
0.0
 40
26.649699999999999
 50
9.9370129999998298
 51
12.653932000001049
  0
ARC
  5
16F
  8
0
  6
BYBLOCK
 62
     0
 10
252.97595551536901
 20
204.56100031955381
 30
0.0
 40
0.5
 50
270.0
 51
0.0
  0
ARC
  5
170
  8
0
  6
BYBLOCK
 62
     0
 10
203.47595551536901
 20
205.56100031955381
 30
0.0
 40
50.0
 50
0.0000000000081422
 51
9.9370129999998298
  0
LINE
  5
171
  8
0
  6
BYBLOCK
 62
     0
 10
253.47595551536901
 20
205.56100031955381
 30
0.0
 11
253.47595551536901
 21
204.56100031955381
 31
0.0
  0
ARC
  5
172
  8
0
  6
BYBLOCK
 62
     0
 10
227.75599551536899
 20
211.71292631955379
 30
0.0
 40
25.0
 50
8.5468689999997824
 51
22.217752999999771
  0
ARC
  5
173
  8
0
  6
BYBLOCK
 62
     0
 10
233.97595551536901
 20
250.84847431955379
 30
0.0
 40
8.5
 50
301.96571900000117
 51
0.0
  0
LINE
  5
174
  8
0
  6
BYBLOCK
 62
     0
 10
238.47595551536901
 20
251.44044431955379
 30
0.0
 11
238.47595551536901
 21
243.28440831955379
 31
0.0
  0
POLYLINE
  5
175
  8
0
  6
BYBLOCK
 62
     0
 66
     1
 10
0.0
 20
0.0
 30
0.0
  0
VERTEX
  5
576
  8
0
  6
BYBLOCK
 62
     0
 10
237.47595551536901
 20
243.7857093195538
 30
0.0
  0
VERTEX
  5
577
  8
0
  6
BYBLOCK
 62
     0
 10
236.4760535153691
 20
243.97775631955381
 30
0.0
  0
VERTEX
  5
578
  8
0
  6
BYBLOCK
 62
     0
 10
235.17230351536901
 20
244.14873631955379
 30
0.0
  0
VERTEX
  5
579
  8
0
  6
BYBLOCK
 62
     0
 10
233.60431951536901
 20
244.2934543195538
 30
0.0
  0
VERTEX
  5
57A
  8
0
  6
BYBLOCK
 62
     0
 10
231.819743515369
 20
244.4075133195538
 30
0.0
  0
VERTEX
  5
57B
  8
0
  6
BYBLOCK
 62
     0
 10
229.87279951536911
 20
244.48744631955381
 30
0.0
  0
VERTEX
  5
57C
  8
0
  6
BYBLOCK
 62
     0
 10
227.82264351536901
 20
244.5308263195538
 30
0.0
  0
VERTEX
  5
57D
  8
0
  6
BYBLOCK
 62
     0
 10
225.73156951536899
 20
244.53633431955379
 30
0.0
  0
VERTEX
  5
57E
  8
0
  6
BYBLOCK
 62
     0
 10
223.66311351536899
 20
244.50380331955381
 30
0.0
  0
VERTEX
  5
57F
  8
0
  6
BYBLOCK
 62
     0
 10
221.6801245153691
 20
244.43422131955381
 30
0.0
  0
VERTEX
  5
580
  8
0
  6
BYBLOCK
 62
     0
 10
219.842853515369
 20
244.3297033195538
 30
0.0
  0
VERTEX
  5
581
  8
0
  6
BYBLOCK
 62
     0
 10
218.207126515369
 20
244.1934243195538
 30
0.0
  0
VERTEX
  5
582
  8
0
  6
BYBLOCK
 62
     0
 10
216.82264351536901
 20
244.02952531955381
 30
0.0
  0
VERTEX
  5
583
  8
0
  6
BYBLOCK
 62
     0
 10
215.73147151536901
 20
243.84298631955369
 30
0.0
  0
VERTEX
  5
584
  8
0
  6
BYBLOCK
 62
     0
 10
215.47595551536901
 20
243.7857093195538
 30
0.0
  0
SEQEND
  5
585
  8
0
  6
BYBLOCK
 62
     0
  0
POLYLINE
  5
176
  8
0
  6
BYBLOCK
 62
     0
 66
     1
 10
0.0
 20
0.0
 30
0.0
 70
     1
  0
VERTEX
  5
586
  8
0
  6
BYBLOCK
 62
     0
 10
234.47595551536901
 20
240.50070431955379
 30
0.0
  0
VERTEX
  5
587
  8
0
  6
BYBLOCK
 62
     0
 10
234.35441751536899
 20
240.64591331955381
 30
0.0
  0
VERTEX
  5
588
  8
0
  6
BYBLOCK
 62
     0
 10
233.99349651536909
 20
240.7867103195538
 30
0.0
  0
VERTEX
  5
589
  8
0
  6
BYBLOCK
 62
     0
 10
233.40415851536901
 20
240.9188173195538
 30
0.0
  0
VERTEX
  5
58A
  8
0
  6
BYBLOCK
 62
     0
 10
232.60431151536901
 20
241.0382203195538
 30
0.0
  0
VERTEX
  5
58B
  8
0
  6
BYBLOCK
 62
     0
 10
231.6182565153691
 20
241.1412913195538
 30
0.0
  0
VERTEX
  5
58C
  8
0
  6
BYBLOCK
 62
     0
 10
230.47595551536901
 20
241.2248983195538
 30
0.0
  0
VERTEX
  5
58D
  8
0
  6
BYBLOCK
 62
     0
 10
229.2121165153691
 20
241.28650131955379
 30
0.0
  0
VERTEX
  5
58E
  8
0
  6
BYBLOCK
 62
     0
 10
227.865141515369
 20
241.32422731955381
 30
0.0
  0
VERTEX
  5
58F
  8
0
  6
BYBLOCK
 62
     0
 10
226.47595551536901
 20
241.3369313195538
 30
0.0
  0
VERTEX
  5
590
  8
0
  6
BYBLOCK
 62
     0
 10
225.08677051536901
 20
241.32422731955381
 30
0.0
  0
VERTEX
  5
591
  8
0
  6
BYBLOCK
 62
     0
 10
223.73979451536911
 20
241.28650131955379
 30
0.0
  0
VERTEX
  5
592
  8
0
  6
BYBLOCK
 62
     0
 10
222.47595551536901
 20
241.2248983195538
 30
0.0
  0
VERTEX
  5
593
  8
0
  6
BYBLOCK
 62
     0
 10
221.33365451536901
 20
241.1412913195538
 30
0.0
  0
VERTEX
  5
594
  8
0
  6
BYBLOCK
 62
     0
 10
220.34760051536909
 20
241.0382203195538
 30
0.0
  0
VERTEX
  5
595
  8
0
  6
BYBLOCK
 62
     0
 10
219.5477525153691
 20
240.9188173195538
 30
0.0
  0
VERTEX
  5
596
  8
0
  6
BYBLOCK
 62
     0
 10
218.9584145153689
 20
240.7867103195538
 30
0.0
  0
VERTEX
  5
597
  8
0
  6
BYBLOCK
 62
     0
 10
218.597493515369
 20
240.64591331955381
 30
0.0
  0
VERTEX
  5
598
  8
0
  6
BYBLOCK
 62
     0
 10
218.47595551536901
 20
240.50070431955379
 30
0.0
  0
VERTEX
  5
599
  8
0
  6
BYBLOCK
 62
     0
 10
218.597493515369
 20
240.3554943195538
 30
0.0
  0
VERTEX
  5
59A
  8
0
  6
BYBLOCK
 62
     0
 10
218.9584145153689
 20
240.21469731955381
 30
0.0
  0
VERTEX
  5
59B
  8
0
  6
BYBLOCK
 62
     0
 10
219.5477525153691
 20
240.08259031955379
 30
0.0
  0
VERTEX
  5
59C
  8
0
  6
BYBLOCK
 62
     0
 10
220.34760051536909
 20
239.96318731955381
 30
0.0
  0
VERTEX
  5
59D
  8
0
  6
BYBLOCK
 62
     0
 10
221.33365451536901
 20
239.86011631955381
 30
0.0
  0
VERTEX
  5
59E
  8
0
  6
BYBLOCK
 62
     0
 10
222.47595551536901
 20
239.77650931955381
 30
0.0
  0
VERTEX
  5
59F
  8
0
  6
BYBLOCK
 62
     0
 10
223.73979451536911
 20
239.71490731955379
 30
0.0
  0
VERTEX
  5
5A0
  8
0
  6
BYBLOCK
 62
     0
 10
225.08677051536901
 20
239.6771803195538
 30
0.0
  0
VERTEX
  5
5A1
  8
0
  6
BYBLOCK
 62
     0
 10
226.47595551536901
 20
239.66447631955381
 30
0.0
  0
VERTEX
  5
5A2
  8
0
  6
BYBLOCK
 62
     0
 10
227.865141515369
 20
239.6771803195538
 30
0.0
  0
VERTEX
  5
5A3
  8
0
  6
BYBLOCK
 62
     0
 10
229.2121165153691
 20
239.71490731955379
 30
0.0
  0
VERTEX
  5
5A4
  8
0
  6
BYBLOCK
 62
     0
 10
230.47595551536901
 20
239.77650931955381
 30
0.0
  0
VERTEX
  5
5A5
  8
0
  6
BYBLOCK
 62
     0
 10
231.6182565153691
 20
239.86011631955381
 30
0.0
  0
VERTEX
  5
5A6
  8
0
  6
BYBLOCK
 62
     0
 10
232.60431151536901
 20
239.96318731955381
 30
0.0
  0
VERTEX
  5
5A7
  8
0
  6
BYBLOCK
 62
     0
 10
233.40415851536901
 20
240.08259031955379
 30
0.0
  0
VERTEX
  5
5A8
  8
0
  6
BYBLOCK
 62
     0
 10
233.99349651536909
 20
240.21469731955381
 30
0.0
  0
VERTEX
  5
5A9
  8
0
  6
BYBLOCK
 62
     0
 10
234.35441751536899
 20
240.3554943195538
 30
0.0
  0
SEQEND
  5
5AA
  8
0
  6
BYBLOCK
 62
     0
  0
POLYLINE
  5
177
  8
0
  6
BYBLOCK
 62
     0
 66
     1
 10
0.0
 20
0.0
 30
0.0
 70
     1
  0
VERTEX
  5
5AB
  8
0
  6
BYBLOCK
 62
     0
 10
236.97595551536901
 20
240.50070431955379
 30
0.0
  0
VERTEX
  5
5AC
  8
0
  6
BYBLOCK
 62
     0
 10
236.81643751536899
 20
240.69097631955381
 30
0.0
  0
VERTEX
  5
5AD
  8
0
  6
BYBLOCK
 62
     0
 10
236.34272851536909
 20
240.87546831955379
 30
0.0
  0
VERTEX
  5
5AE
  8
0
  6
BYBLOCK
 62
     0
 10
235.56922251536901
 20
241.04857231955381
 30
0.0
  0
VERTEX
  5
5AF
  8
0
  6
BYBLOCK
 62
     0
 10
234.519422515369
 20
241.2050303195538
 30
0.0
  0
VERTEX
  5
5B0
  8
0
  6
BYBLOCK
 62
     0
 10
233.225225515369
 20
241.34008731955379
 30
0.0
  0
VERTEX
  5
5B1
  8
0
  6
BYBLOCK
 62
     0
 10
231.72595551536901
 20
241.44964031955379
 30
0.0
  0
VERTEX
  5
5B2
  8
0
  6
BYBLOCK
 62
     0
 10
230.06716751536899
 20
241.53036031955381
 30
0.0
  0
VERTEX
  5
5B3
  8
0
  6
BYBLOCK
 62
     0
 10
228.29926151536901
 20
241.5797953195538
 30
0.0
  0
VERTEX
  5
5B4
  8
0
  6
BYBLOCK
 62
     0
 10
226.47595551536901
 20
241.5964413195538
 30
0.0
  0
VERTEX
  5
5B5
  8
0
  6
BYBLOCK
 62
     0
 10
224.65264951536901
 20
241.5797953195538
 30
0.0
  0
VERTEX
  5
5B6
  8
0
  6
BYBLOCK
 62
     0
 10
222.88474451536911
 20
241.53036031955381
 30
0.0
  0
VERTEX
  5
5B7
  8
0
  6
BYBLOCK
 62
     0
 10
221.22595551536901
 20
241.44964031955379
 30
0.0
  0
VERTEX
  5
5B8
  8
0
  6
BYBLOCK
 62
     0
 10
219.7266855153691
 20
241.34008731955379
 30
0.0
  0
VERTEX
  5
5B9
  8
0
  6
BYBLOCK
 62
     0
 10
218.43248851536899
 20
241.2050303195538
 30
0.0
  0
VERTEX
  5
5BA
  8
0
  6
BYBLOCK
 62
     0
 10
217.38268851536901
 20
241.04857231955381
 30
0.0
  0
VERTEX
  5
5BB
  8
0
  6
BYBLOCK
 62
     0
 10
216.60918351536901
 20
240.87546831955379
 30
0.0
  0
VERTEX
  5
5BC
  8
0
  6
BYBLOCK
 62
     0
 10
216.135474515369
 20
240.69097631955381
 30
0.0
  0
VERTEX
  5
5BD
  8
0
  6
BYBLOCK
 62
     0
 10
215.97595551536901
 20
240.50070431955379
 30
0.0
  0
VERTEX
  5
5BE
  8
0
  6
BYBLOCK
 62
     0
 10
216.135474515369
 20
240.3104313195538
 30
0.0
  0
VERTEX
  5
5BF
  8
0
  6
BYBLOCK
 62
     0
 10
216.60918351536901
 20
240.12593931955379
 30
0.0
  0
VERTEX
  5
5C0
  8
0
  6
BYBLOCK
 62
     0
 10
217.38268851536901
 20
239.9528353195538
 30
0.0
  0
VERTEX
  5
5C1
  8
0
  6
BYBLOCK
 62
     0
 10
218.43248851536899
 20
239.79637731955381
 30
0.0
  0
VERTEX
  5
5C2
  8
0
  6
BYBLOCK
 62
     0
 10
219.7266855153691
 20
239.66132031955379
 30
0.0
  0
VERTEX
  5
5C3
  8
0
  6
BYBLOCK
 62
     0
 10
221.22595551536901
 20
239.55176731955379
 30
0.0
  0
VERTEX
  5
5C4
  8
0
  6
BYBLOCK
 62
     0
 10
222.88474451536911
 20
239.4710473195538
 30
0.0
  0
VERTEX
  5
5C5
  8
0
  6
BYBLOCK
 62
     0
 10
224.65264951536901
 20
239.42161331955381
 30
0.0
  0
VERTEX
  5
5C6
  8
0
  6
BYBLOCK
 62
     0
 10
226.47595551536901
 20
239.40496631955381
 30
0.0
  0
VERTEX
  5
5C7
  8
0
  6
BYBLOCK
 62
     0
 10
228.29926151536901
 20
239.42161331955381
 30
0.0
  0
VERTEX
  5
5C8
  8
0
  6
BYBLOCK
 62
     0
 10
230.06716751536899
 20
239.4710473195538
 30
0.0
  0
VERTEX
  5
5C9
  8
0
  6
BYBLOCK
 62
     0
 10
231.72595551536901
 20
239.55176731955379
 30
0.0
  0
VERTEX
  5
5CA
  8
0
  6
BYBLOCK
 62
     0
 10
233.225225515369
 20
239.66132031955379
 30
0.0
  0
VERTEX
  5
5CB
  8
0
  6
BYBLOCK
 62
     0
 10
234.519422515369
 20
239.79637731955381
 30
0.0
  0
VERTEX
  5
5CC
  8
0
  6
BYBLOCK
 62
     0
 10
235.56922251536901
 20
239.9528353195538
 30
0.0
  0
VERTEX
  5
5CD
  8
0
  6
BYBLOCK
 62
     0
 10
236.34272851536909
 20
240.12593931955379
 30
0.0
  0
VERTEX
  5
5CE
  8
0
  6
BYBLOCK
 62
     0
 10
236.81643751536899
 20
240.3104313195538
 30
0.0
  0
SEQEND
  5
5CF
  8
0
  6
BYBLOCK
 62
     0
  0
ARC
  5
178
  8
0
  6
BYBLOCK
 62
     0
 10
203.670800515369
 20
222.84916231955381
 30
0.0
 40
40.0
 50
19.96326100000006
 51
23.05506799999954
  0
ARC
  5
179
  8
0
  6
BYBLOCK
 62
     0
 10
250.66638651536911
 20
239.92003831955381
 30
0.0
 40
10.0
 50
199.96326099999999
 51
222.5811280000016
  0
LINE
  5
17A
  8
0
  6
BYBLOCK
 62
     0
 10
236.97595551536901
 20
240.50070431955379
 30
0.0
 11
238.47595551536901
 21
243.28440831955379
 31
0.0
  0
POLYLINE
  5
17B
  8
0
  6
BYBLOCK
 62
     0
 66
     1
 10
0.0
 20
0.0
 30
0.0
  0
VERTEX
  5
5D0
  8
0
  6
BYBLOCK
 62
     0
 10
237.47595551536901
 20
252.6338713195538
 30
0.0
  0
VERTEX
  5
5D1
  8
0
  6
BYBLOCK
 62
     0
 10
237.30884051536901
 20
252.83353431955379
 30
0.0
  0
VERTEX
  5
5D2
  8
0
  6
BYBLOCK
 62
     0
 10
236.81257451536899
 20
253.02713031955369
 30
0.0
  0
VERTEX
  5
5D3
  8
0
  6
BYBLOCK
 62
     0
 10
236.00223551536899
 20
253.2087773195538
 30
0.0
  0
VERTEX
  5
5D4
  8
0
  6
BYBLOCK
 62
     0
 10
234.9024445153691
 20
253.37295631955379
 30
0.0
  0
VERTEX
  5
5D5
  8
0
  6
BYBLOCK
 62
     0
 10
233.54661951536909
 20
253.51467931955381
 30
0.0
  0
VERTEX
  5
5D6
  8
0
  6
BYBLOCK
 62
     0
 10
231.97595551536901
 20
253.62963831955381
 30
0.0
  0
VERTEX
  5
5D7
  8
0
  6
BYBLOCK
 62
     0
 10
230.2381775153691
 20
253.71434231955379
 30
0.0
  0
VERTEX
  5
5D8
  8
0
  6
BYBLOCK
 62
     0
 10
228.3860855153691
 20
253.76621631955379
 30
0.0
  0
VERTEX
  5
5D9
  8
0
  6
BYBLOCK
 62
     0
 10
226.47595551536901
 20
253.7836843195538
 30
0.0
  0
VERTEX
  5
5DA
  8
0
  6
BYBLOCK
 62
     0
 10
224.565825515369
 20
253.76621631955379
 30
0.0
  0
VERTEX
  5
5DB
  8
0
  6
BYBLOCK
 62
     0
 10
222.713734515369
 20
253.71434231955379
 30
0.0
  0
VERTEX
  5
5DC
  8
0
  6
BYBLOCK
 62
     0
 10
220.97595551536901
 20
253.62963831955381
 30
0.0
  0
VERTEX
  5
5DD
  8
0
  6
BYBLOCK
 62
     0
 10
219.40529151536899
 20
253.51467931955381
 30
0.0
  0
VERTEX
  5
5DE
  8
0
  6
BYBLOCK
 62
     0
 10
218.04946651536909
 20
253.37295631955379
 30
0.0
  0
VERTEX
  5
5DF
  8
0
  6
BYBLOCK
 62
     0
 10
216.94967651536891
 20
253.2087773195538
 30
0.0
  0
VERTEX
  5
5E0
  8
0
  6
BYBLOCK
 62
     0
 10
216.13933651536911
 20
253.02713031955369
 30
0.0
  0
VERTEX
  5
5E1
  8
0
  6
BYBLOCK
 62
     0
 10
215.64307051536909
 20
252.83353431955379
 30
0.0
  0
VERTEX
  5
5E2
  8
0
  6
BYBLOCK
 62
     0
 10
215.47595551536901
 20
252.6338713195538
 30
0.0
  0
SEQEND
  5
5E3
  8
0
  6
BYBLOCK
 62
     0
  0
LINE
  5
17C
  8
0
  6
BYBLOCK
 62
     0
 10
215.47595551536901
 20
252.6338713195538
 30
0.0
 11
215.47595551536901
 21
251.9417453195538
 31
0.0
  0
ARC
  5
17D
  8
0
  6
BYBLOCK
 62
     0
 10
185.23416451536889
 20
281.3450863195539
 30
0.0
 40
60.0
 50
332.77410400000008
 51
341.16323999999958
  0
LINE
  5
17E
  8
0
  6
BYBLOCK
 62
     0
 10
242.47595551536901
 20
264.7171263195537
 30
0.0
 11
242.47595551536901
 21
250.84847431955379
 31
0.0
  0
ARC
  5
17F
  8
0
  6
BYBLOCK
 62
     0
 10
239.47595551536901
 20
253.4375943195538
 30
0.0
 40
1.0
 50
152.77410400000011
 51
180.0
  0
LINE
  5
180
  8
0
  6
BYBLOCK
 62
     0
 10
238.47595551536901
 20
252.6338713195538
 30
0.0
 11
238.47595551536901
 21
253.4375943195538
 31
0.0
  0
LINE
  5
181
  8
0
  6
BYBLOCK
 62
     0
 10
237.47595551536901
 20
252.6338713195538
 30
0.0
 11
237.47595551536901
 21
251.9417453195538
 31
0.0
  0
ARC
  5
182
  8
0
  6
BYBLOCK
 62
     0
 10
233.97595551536901
 20
264.7171263195537
 30
0.0
 40
8.5
 50
0.0
 51
58.852722999998569
  0
ENDSEC
  0
EOF
